-------------------------------------------------------
NOFX / you drink you drive you spill
------------------------------------------------------
intro
|------------------------|
|-------------------------|
|-------------------------|
|-----3>--5>-7>-10>-12>-7>-7>--|
|-5>---------------------|
verse
|-------------------------------------------|
|-------------------------------------------|
|-------------3-3-3-3-----------------------|
|-5-5-5-5------------1-1-1-1-3-3-3-3--|
chorus
|------------------------------------------------------------------------
|------------------------------------------------------------------------
|------------------------------------------------------------------------
|-1-1-1-3-3-3-5-5-5-5-5-5-5-1-1-1-3-3-3-5-5-5-5-5-5-5-
|--------------------------------
|--------------------------------
|------------------3-3-3-------
|-1-1-1-3-3-3----------7-7-7-
|-------------------------------------------------------------------------------
|-------------------------------------------------------------------------------
|--------------------3-3-3-3-3-3-3--------------------3-3-3-3-3-3-3-
|-1-1-1-3-3-3-----------------------1-1-3-3-3-3-----------------------
|-------------------------------------------------------------------|
|------------------------------------------------------------------|
|--------------------3-3-3-3-3-3-3-3--3-3-3-3-2-2-2-2--|
|-1-1-1-3-3-3--------------------------------------------------|




Ваше мнение



Капча