-------------------------------------------------------------------------------
Whoops I Od'd - NOFX
-------------------------------------------------------------------------------
Tabbed by: Ryan Spicer
Email: [email protected] (remove nospam)
Tuning: Standard
Some people say this song is played on bass, but it is definitely on guitar.
To get the same tone as the album, you need to push an amp's clean channel really
hard to get it to break up nicely.
NOTE: rhymthm/strumming not shown, just figure it out on your own
Intro/verse riff - play 1x
e|-----------------------------------------------------------------|
B|-----------------------------------------------------------------|
G|---------------------------------------------5--4--2-------------|
D|---9--10--9---10--12------5--7--5--7--9------x--x--x---5---------|
A|--10--10--10--10--10------7--7--7--7--7------0--0--0---3---------|
E|-----------------------------------------------------------------|
Whoops I od'd
play intro/verse riff 1x
tell my wife I...
e|--------------------|
B|--------------------|
G|--------------------|
D|--5--10--9---10--5--|
A|--5--10--10--10--5--|
E|--3--------------3--|
error in judge...
e|-----------------------------------------------------------------|
B|-----------------------------------------------------------------|
G|-------------------------------------------5--4--2---------------|
D|--5--10--9---10--12-----5--7--5--7--9------x--x--x---5-----------|
A|--5--10--10--10--10-----7--7--7--7--7------0--0--0---3-----------|
E|--3--------------------------------------------------------------|
no guiding light...
e|--------------------|
B|--------------------|
G|--------------------|
D|--5--10--9---10--5--|
A|--5--10--10--10--5--|
E|--3--------------3--|
I never meant..I never thought
e|-------------------------|
B|----------0--------------|
G|----5-----0------5-------|
D|-7--5--5--2---7--5-------|
A|-7--3--5--2---7--3-------|
E|-5-----3--0---5----------|
I got lost in the moment...
e|-----------------|
B|-----------------|
G|--4--4--4--4--3--|
D|--5--5--5--5--5--|
A|--7--6--5--4--3--|
E|-----------------|
6 minutes down
e|-----------------------------------------------------------------|
B|-----------------------------------------------------------------|
G|-------------------------------------------5--4--2---------------|
D|--5--10--9---10--12-----5--7--5--7--9------x--x--x---5-----------|
A|--5--10--10--10--10-----7--7--7--7--7------0--0--0---3-----------|
E|--3--------------------------------------------------------------|
the look on you...
e|--------------------|
B|--------------------|
G|--------------------|
D|--5--10--9---10--5--|
A|--5--10--10--10--5--|
E|--3--------------3--|
is killing me...but don't feel bad
e|-------------------------|
B|----------0--------------|
G|----5-----0------5-------|
D|-7--5--5--2---7--5-------|
A|-7--3--5--2---7--3-------|
E|-5-----3--0---5----------|
never feared consequences
e|-----------------|
B|-----------------|
G|--4--4--4--4--3--|
D|--5--5--5--5--5--|
A|--7--6--5--4--3--|
E|-----------------|
e|-----------------------------------------------------------------|
B|-----------------------------------------------------------------|
G|-------------------------------------------5--4--2---------------|
D|--5--10--9---10--12-----5--7--5--7--9------x--x--x---5-----------|
A|--5--10--10--10--10-----7--7--7--7--7------0--0--0---3-(hold out)|
E|--3--------------------------------------------------------------|
a year has passed
e|-----------------------------------------------------------------|
B|-----------------------------------------------------------------|
G|-------------------------------------------5--4--2---------------|
D|--5--10--9---10--12-----5--7--5--7--9------x--x--x---5-----------|
A|--5--10--10--10--10-----7--7--7--7--7------0--0--0---3-----------|
E|--3--------------------------------------------------------------|
a scrapbook of old friends and faded memories
e|-----------------------------|
B|-----------------------------|
G|-------------------------5---|
D|--5--10--9---10--5----7--5---|
A|--5--10--10--10--5----7--3---|
E|--3--------------3----5------|
looks like I pulled the rug from under myself
e|-----------------------|
B|-----------------------|
G|--4--4--4--4--3-----5--|
D|--5--5--5--5--5--7--5--|
A|--7--6--5--4--3--7--3--|
E|-----------------5-----|
I'll see you all..
e|--3--3--0--3--|
B|--3--6--1--4--|
G|--4--4--0--5--|
D|--5--3--2--5--|
A|--5--5--3--3--|
E|--3--3--------|
That's it guys, send me corrections/requests and check out
http://www.outpatientzero.com while you're at it.




Ваше мнение



Капча