Standard tuning E,b,g,d,a,e
Off the Pump up the valuum album, one of the easier songs to play on it.

Intro/Verses: "Mom and dad..."
E-----------------------------------------
b-----------------------------------------
g-555-555-555-555-555-55555-5555555-------
d-777-666-555-444-333-00000-5555555-66666-
a---------------------------3333333-77777-
e-----------------------------------------
pm.. .. .. .. .. ..

"wearing teenage clothes."
E-------------------------------
b-------------------------------
g-5--5--5--5--5--5--5-----------
d-7--6--5--4--3--0--5--6666666--
a-------------------3--7777777--
e-------------------------------

"Its ubsurd.." "your not supposed to like my band..
E------------------------------------------------------
b------------------------------------------------------
g--------------------------777777--------777777--------
d-7777-5555-77777-10101010-777777-333333-777777-333333-
a-7777-5555-77777-10101010-555555-333333-555555-333333-
e-5555-3333-55555-8-8-8-8---------111111--------111111-

"so please put down that rum and coke."
E---------------------------------------------------------------
b---------------------------------------------------------------
g-555555555555555555555555555555555555--------------10101010----
d-555555555555555555555555555555555555-55555-777777-10101010----
a-333333333333333333333333333333333333-22222-777777-8-8-8-8-----
e--------------------------------------------555555-------------

Then play intro/verses and the required amount of times (on the third verse it is muted)
then end with this
"Maybe its just a passing phase.."
E--------------------------------------------
b--------------------------------------------
g-10-10-10-10-10-10-10-10-7-7-7-7-7-7-7-7-5--
d-10-10-10-10-10-10-10-10-7-7-7-7-7-7-7-7-7-- Let the final chord ring
a-8--8--8--8--8--8--8--8--5-5-5-5-5-5-5-5----
e--------------------------------------------

[email protected]




Ваше мнение



Капча