WHAT EVER DIDI WANTS - NOFX

By: Marc Bourgon [email protected]

Intro: Rythum
( _____ ) = Palm Muting ( ***** ) = Ska Upbeat
e|---------------------------------------------------------------|
B|---------------------------------------------------------------|
G|--------------------------------------------4-4-4-4------------|
D|-5-----------------------------5------------5-5-5-5------------|
A|-3-----5-----3-----5--5-5-5----3---5-----3--5-5-5-5------------|
E|-------3-----1-----3--3-3-3--------3-----1--3-3-3-3------------|

Intro: Lead
e|---88----88------8---8---8---8----88---88---8---8---8----------|
B|12-----12-----12--12--12--12--12---12---12--12--12-------------|
G|---------------------------------------------------------------|
D|---------------------------------------------------------------|
A|---------------------------------------------------------------|
E|---------------------------------------------------------------|

Verse1: X2
e|----------------------------------------------------------------------|
B|-------------------------5-3-5-3----------------------------5-3-5-3---|
G|-0-0-0-0-0-0--------------------5----------------------------------5--|
D|-2-2-2-2-2-2----------------------------------------------------------|
A|-3-3-3-3-3-3----5-5-5-5-------------3-3-3-3-3-3--5-5-5-5--------------|
E|----------------3-3-3-3-------------1-1-1-1-1-1--3-3-3-3--------------|

Chorus:
e|--------------------------------------------------------------|
B|--------------------------------------------------------------|
G|--------------------------------------------------------------|
D|--------------------------------------------------------------|
A|-7-7-7-7-7-7-7-7-7-7-7-7-10-10-10-10-10-10-10-10-10-10-10-10--|
E|-5-5-5-5-5-5-5-5-5-5-5-5--8--8--8--8--8--8--8--8--8--8--8--8--|

e|--------------------------------------------------------------|
B|--------------------------------------------------------------|
G|--------------------------------------------------------------|
D|--------------------------------------------------------------|
A|-5-5-5-5-5-5-5-5-5-5-5-5--3-3-3-3-3-3-3-3-3-3-3---------------|
E|-3-3-3-3-3-3-3-3-3-3-3-3--1-1-1-1-1-1-1-1-1-1-1---------------|

Bridge
e|--------------------------3-3-3-3-3-3-3-3-1-1-1-1-1-1-1-1-1-1-1-1-1-1-1-3-3-3-3-3-3-3|
B|--------------------------5-5-5-5-5-5-5-5-3-3-3-3-3-3-3-3-1-1-1-1-1-1-1-3-3-3-3-3-3-3|
G|--------------------------5-5-5-5-5-5-5-5-3-3-3-3-3-3-3-3-2-2-2-2-2-2-2-4-4-4-4-4-4-4|
D|-5-------------3---------------------------------------------------------------------|
A|-3-------------1----3---3------------------------------------------------------------|
E|--------------------1---1------------------------------------------------------------|
You are so...

Mini Solo:(After Bridge)
e|-------------------------------------------------------------------------------------|
B|5-3-5-3---------------3-------------------------5---5-3--5-5-5-5-5-5-----------------|
G|---------5-5-5-5-5-5--4----5-4-5-4-2-2-2-2-2-2--5-------5-----------5-4--2-4-5--4-5-7|
D|-------------------------------------------------------------------------------------|
A|-------------------------------------------------------------------------------------|
E|-------------------------------------------------------------------------------------|




Ваше мнение



Капча