WARM by NOFX. Album : White trash, two heebs and a bean (1992) 1/3
This is not just warm, it's steaming hot!
A=Melvin B=El Hefe A&B=both
:
# intro #B X4 !GuitarA is quiet!
E-----------------------------|
B-----------------------------|
G-----------------------------|
D-----------------------------|
A-----------------------------|
E---5--3--5--3--3-3-2--3--2---|
:
# intro2 #A X4
E------/----palm-muted-------|
B-----------------------------|
G--14-------------------------|
D--14--14-14-14-14-14-14-14---|
A--12--12-12-12-12-12-12-12---|
E-----------------------------|
# intro2 #B X4
E-----------------------------|
B-----------------------------|
G-----------------------------|
D-----------------------------|
A-----------------------------|
E---5--3--5--3--3-3-2--3--2---|
:
# intro3 #A&B X2 # intro4 #A&B m=palm-mute note below
E---3-----------| E-----m-m-m---m-m-m-------------------m-m-m---m-m-m---|
B---3---7-------| B---8-8-8-8-8-8-8-8---m-m-m---m-m-m-8-8-8-8-8-8-8-8---|
G---4---7-------| G---7-7-7-7-7-7-7-7-7-7-7-7-7-7-7-7-7-7-7-7-7-7-7-7---|
D---5---7---7---| D-------------------7-7-7-7-7-7-7-7-------------------|
A---5---5---7---| A-----------------------------------------------------|
E-----------5---| E-----------------------------------------------------|
:
# intro5 #A&B
E-----------------------------------3-3--------------------------------------|
B-----------------------------------3-3--------------------------------------|
G-----------------------------------4-4--------------------------------5-5-5-|
D---6-7-6---9-7-6---7-5-7---6-7-6---5-5--6-7-6---9-7-6---7-5-7---3-3-3-5-5-5-|
A---7-7-7---7-7-7---5-5-5---7-7-7---5-5--7-7-7---7-7-7---5-5-5---3-3-3-3-3-3-|
E----------------------------------------------------------------1-1-1-------|
:
# intro6/versestart #A&B *=play 8X palm-muted #=play 6X
E-------------------------------------------------------------3---3------------|
B------------#---------------------------#--------------------3---3------------|
G----*------7------*-------#-----*------7------*--------------4---4----*----5--|
D---2-------7-----2-------3-----2-------7-----2-------7-7-----5-4-5---3-----5--|
A---2-------5-----2-------3-----2-------5-----2-------7-7-----5-5-5---3-----3--|
E---0-------------0-------1-----0-------------0-------5-5-------------1--------|
:
# verse #A&B X2 (I'm sitting in the corner...)
E---------------------------3---3-----------------------------|
B---------------------------3---3-----------------------------|
G---------------------------4---4---------------5-5-5-5-5-5---|
D---------------------------5-4-5---3-3-3-3-3-3-5-5-5-5-5-5---|
A---------------------------5-5-5---3-3-3-3-3-3-3-3-3-3-3-3---|
E---5--3--5--3--3-3-2--3--2---------1-1-1-1-1-1---------------|
:
# bridge #A&B *=play 6X (A eudaemonistic life composed...)
E-------------------------|
B----------------*--------|
G----*-----*----7------*--|
D---7-----5-----7-----7---|
A---7-----5-----5-----7---|
E---5-----3-----------5---|
:
>>>>>>>>to next page...
WARM 2/3
# bridge2 #A *=play 6X %=pause
E------------------------------------------------------------------------------|
B----*-----*-----*-----*-----*-----*-----*-----*-----*-----*-----*-----*-------|
G---4-----4-----4-----7-----4-----4-----6-----7-----4-----4-----4-----7-----7--|
D---------------------7-----------------------------------------------7-----7--|
A--------------------%5----------------------------------------------%5----%5--|
E------------------------------------------------------------------------------|
# bridge2 #B *=play 6X %=pause
E------------------------------------------------------------------------------|
B----------------------*-----------------------------------------------*-------|
G----*-----*-----*----7------*-----*-----*-----*-----*-----*-----*----7-----7--|
D---4-----5-----2-----7-----4-----5-----7-----7-----4-----5-----2-----7-----7--|
A---4-----5-----2----%5-----4-----5-----7-----7-----4-----5-----2----%5----%5--|
E---2-----3-----0-----------2-----3-----5-----5-----2-----3-----0--------------|
:
# bridge3 #A&B X2 *=play 6X !palm-mute! (You know it 'cause you've seen it...)
E-------------------------------------------------|
B----------------*-----*-----------------*-----*--|
G----*-----*----4-----4------*-----*----7-----7---|
D---4-----2-----4-----4-----4-----5-----7-----7---|
A---4-----2-----2-----2-----4-----5-----5-----5---|
E---2-----0-----------------2-----3---------------|
:
# bridge4 #A *=play 12X (And it seems so real...)
E-----------------------|
B-----------------------|
G----*-------*-------*--|
D---7-------2-------5---|
A---7-------2-------5---|
E---5-------0-------3---|
# bridge4 #B *=play 12X
E-----------------------|
B------------*-------*--|
G----*------9------12---|
D---7-------9------12---|
A---7-------7------10---|
E---5-------------------|
:
# bridge5 #A X2 *=play 12X
E-------------------------------|
B----*--------------------------|
G---7--------*-------*-------*--|
D---7-------7-------2-------5---|
A---5-------7-------2-------5---|
E-----------5-------0-------3---|
# bridge5 #B X2 *=play 12X
E-------------------------------|
B----*---------------*-------*--|
G---7--------*------9------12---|
D---7-------7-------9------12---|
A---5-------7-------7------10---|
E-----------5-------------------|
:
# bridge6 #A *=play 6X #=play 16X palm-muted (Implanted images of morality...)
E-----------------------------------------------------------------------|
B----*---------------------------*--------------------------------------|
G---7--------*-------*----------7--------*-------#------------7---7-----|
D---7-------7-------2-----------7-------7-------5-------------5-4-5-4---|
A---5-------7-------2-----------5-------7-------5---------------5---5---|
E-----------5-------0-----3-2-0---------5-------3-----------------------|
# bridge6 #B *=play 6X #=play 16X palm-muted
E-------------------------------------------------------------------------| >>
B----*---------------*-----------*----------------------------------------| to
G---7--------*------9-----------7--------*-------#------------7---7-------| next
D---7-------7-------9-----------7-------7-------5-------------5-4-5-4-----| page
A---5-------7-------7-----------5-------7-------5---------------5---5-----| ...
E-----------5-------------3-2-0---------5-------3-------------------------|
WARM 3/3
:
# solo-background #A *=play 6X >
E-----------3---3---------------------------------------------------->
B-----------3---3------------*----------Then------------------------->
G----*------4---4---*-------5-----------play------------------------->
D---7-------5-4-5--3--------5-----------verse-X1--------------------->
A---7-------5-5-5--3--------3---------------------------------------->
E---5--------------1------------------------------------------------->
# solo #B b=bend-up to next note v=vibrato >
E-----------3--------------------------------------------8----------->
B-------------3----------------------------8/10---8/10-----8--131210->
G---4-2---------5-----------------2/5------------------------------->
D---------------------------3---------------------------------------->
A---------------------3-3-5---5-3------------------------------------>
E-------------------5------------------------------------------------>
>solo-backgroundA
>-----------------------------------|
>-----------------------------------|
>-----------------------------------|
>-----------------------------------|
>-----------------------------------|
>-----------------------------------|
>soloB
>------------8-7--8-7-8--8b10-7-8v--|
>-8/10-8/10--8-8--8-8-8-------------|
>-----------------------------------| > Then play verseA&B X3 and bridgeA&B.
>-----------------------------------|
>-----------------------------------|
>-----------------------------------|
:
# outro #A&B ()=play 4X palm-muted >
E-(------------------------)---------------------------------------->
B-(----4X-palm-muted-------)---------------------------------------->
G-(------------------------)14-12---------------------------12-11--->
D-(------------------------)14-12---------------------------12-11--->
A-(-7--5--7--5--5-5-4--5--4)12-10---7--5--7--5--5-5-4--5--4-10--9--->
E-(-5--3--5--3--3-3-2--3--2)--------5--3--5--3--3-3-2--3--2--------->
>outroA&B
>-------------------------------------------------------------------|
>-------------------------------------------------------------------|
>---------------------------11-10-----------------------------------|
>---------------------------11-10----------------------------3--2---|
>---7--5--7--5--5-5-4--5--4--9--8---7--5--7--5--5-5-4--5--4--3--2---|
>---5--3--5--3--3-3-2--3--2---------5--3--5--3--3-3-2--3--2--1--0---|
:
# outro2 #A *=play 8X palm-muted #=play 6X
E------------------------------------------------------------------------3---|
B------------#---------------------------#------------------a-long,------3-7-|
G----*------7------*-------#-----*------7------*--------------long-------4-7-|
D---2-------7-----2-------3-----2-------7-----2-------7-7-----break------5-7-|
A---2-------5-----2-------3-----2-------5-----2-------7-7----------------5-5-|
E---0-------------0-------1-----0-------------0-------5-5--------------------|
# outro2 #B *=play 8X palm-muted #=play 6X
E----------------------------------------------------------------------------|
B------------#---------------------------#-----------------------------------|
G----*------7------*-------#-----*------7------*-----------------------------|
D---2-------7-----2-------3-----2-------7-----2-------7-7--------------------|
A---2-------5-----2-------3-----2-------5-----2-------7-7--------------------|
E---0-------------0-------1-----0-------------0-------5-5--------------------|
:
It's as warm as in hell here!
Tabbed by Jussi Heinonen 27.05.1998




Ваше мнение



Капча