VINCENT - Nofx
By: Jon Niemi
Intro (Gtr. 2 play chords above riff)
D5 E5 G5 A5
e|----------------------------|---------------------------|
B|--7-5-3-5/7-5---7-5-3-5/7-5-|-7-5-3-5/7-5--7-5-3-5/7-5--|
G|----------------------------|---------------------------|
D|----------------------------|---------------------------|
A|----------------------------|---------------------------|
E|----------------------------|---------------------------|
Verse
p.m.^^^^^^^^^^^^^^^^^^^^^^^^^^^^^^^^^ E5
e|-------------------------------------|------------------|
B|-------------------------------------|--8---7--5-----3--|
G|-7-7-7-7-7-7-7-7-7-7-7-7-7-7-7-7-7-7-|------------------|
D|-7-7-7-7-7-7-7-7-7-7-7-7-7-7-7-7-7-7-|------------------|
A|-5-5-5-5-5-5-5-5-5-5-5-5-5-5-5-5-5-5-|------------------|
E|-------------------------------------|------------------|
G5 A5 D5
e|-------------------|----------------||-----2--2--2--3--2--0-2--||
B|--3~~~~~~~~~~------|-2~~~~~~~~~-----||--x--3--3--3--3--3--3-3--||
G|-------------------|----------------||*-x--2--3--2--2--2--2-2-*||
D|-------------------|----------------||--x----------------------||
A|-------------------|----------------||*-----------------------*||
E|-------------------|----------------||-------------------------||
play that twice
Chorus
p.m^ ^^^^ ^^^^
e|--------------------------|-------------------------|-------------|
B|--------------------------|-------------------------|-------------|
G|--------------------------|-------------------------|-7----5----4-|
D|-2-2--2-2--2--2-2--2--2-2-|-5-5-5-5-5-5-5-5-5-5-5-5-|-7----5----4-|
A|-2-2--2-2--2--2-2--2--2-2-|-5-5-5-5-5-5-5-5-5-5-5-5-|-5----3----2-|
E|-0-0--0-0--0--0-0--0--0-0-|-3-3-3-3-3-3-3-3-3-3-3-3-|-------------|
e|-----------------------3-3-3-3-3-3-3-|---------------------|
B|-------------------------------------|---------------------|
G|-------------------------------------|-7-7-7-7-7-7-7-7-7-7-|
D|-2-2-2-2-2-2-2-2-2-2-2-2-2-2-2-2-2-2-|-7-7-7-7-7-7-7-7-7-7-|
A|-2-2-2-2-2-2-2-2-2-2-2-2-2-2-2-2-2-2-|-5-5-5-5-5-5-5-5-5-5-|
E|-0-0-0-0-0-0-0-0-0-0-0-0-0-0-0-0-0-0-|---------------------|
p.m^ ^^^^ ^^^^
e|--------------------------|-------------------------|
B|--------------------------|-------------------------|
G|--------------------------|-------------------------|
D|-2-2--2-2--2--2-2--2--2-2-|-5-5-5-5-5-5-5-5-5-5-5-5-|
A|-2-2--2-2--2--2-2--2--2-2-|-5-5-5-5-5-5-5-5-5-5-5-5-|
E|-0-0--0-0--0--0-0--0--0-0-|-3-3-3-3-3-3-3-3-3-3-3-3-|
Repeat the intro Riff
Repeat the Verse Riff
Repeat the Chorus Riff
Bridge?
e|---------------------------------|-------------------------------|
B|---------------------------------|-------------------------------|
G|-7-7-7-7-7-7-7-7-7-7-7-7-7-7-7-7-|-7-7-7-7-7-7-7-7-7-7-7-7-7-7-7-|
D|-7-7-7-7-7-7-7-7-7-7-7-7-7-7-7-7-|-7-7-7-7-7-7-7-7-7-7-7-7-7-7-7-|
A|-5-5-5-5-5-5-5-5-5-5-5-5-5-5-5-5-|-5-5-5-5-5-5-5-5-5-5-5-5-5-5-5-|
E|---------------------------------|-------------------------------|
e|-------------------------|-----------------------|---------------------|
B|-------------------------|-----------------------|---------------------|
G|-------------------------|-----------------------|-7-7-7-7-7-7-7-7-7-7-|
D|-2-2-2-2-2-2-2-2-2-2-2-2-|-7-7-7-7-7-7-7-7-7-7-7-|-7-7-7-7-7-7-7-7-7-7-|
A|-2-2-2-2-2-2-2-2-2-2-2-2-|-7-7-7-7-7-7-7-7-7-7-7-|-5-5-5-5-5-5-5-5-5-5-|
E|-0-0-0-0-0-0-0-0-0-0-0-0-|-5-5-5-5-5-5-5-5-5-5-5-|---------------------|
e|-------------------------|-----------|-3---------|-----------|
B|-------------------------|-----------|-3---------|-----------|
G|-4-4-4-4-4-4-4-4-4-4-4-4-|-----------|-4---------|-7---6---4-|
D|-4-4-4-4-4-4-4-4-4-4-4-4-|-2---------|-5---------|-7---6---4-|
A|-2-2-2-2-2-2-2-2-2-2-2-2-|-2---------|-5---------|-5---4---2-|
E|-------------------------|-0---------|-2---------|-----------|
e|-------------------------|-----------------------|-----------------------|
B|-------------------------|-----------------------|-----------------------|
G|-------------------------|-----------------------|-----------------------|
D|-2-2-2-2-2-2-2-2-2-2-2-2-|-5-5-5-5-5-5-5-5-5-5-5-|-7-7-7-7-7-7-7-7-7-7-7-|
A|-2-2-2-2-2-2-2-2-2-2-2-2-|-5-5-5-5-5-5-5-5-5-5-5-|-7-7-7-7-7-7-7-7-7-7-7-|
E|-0-0-0-0-0-0-0-0-0-0-0-0-|-3-3-3-3-3-3-3-3-3-3-3-|-5-5-5-5-5-5-5-5-5-5-5-|
D5 E5 G5 A5
e|-----------------------------|------------------------------|
B|--7-5-3-5/7-5--3-7-5-3-5/7-5-|-3-7-5-3-5/7-5--2-7-5-3-5/7-5-|
G|-----------------------------|------------------------------|
D|-----------------------------|------------------------------|
A|-----------------------------|------------------------------|
E|-----------------------------|------------------------------|




Ваше мнение



Капча