Song: Vanilla sex
Band: NoFX
Album: s&m airlines
tabbed by: Carlos Pino

verse 1
G:---------------------------------------------------------------
D:---------x-x-x-x-------2-0-0-0-0-0------------------------------------------
A:-3-3-3------------3-3-----------------0-0-0-0-0-0-0-0-0-0-0-0-0-0-0-0
E:---------------------------------------------------------------

verse 2
G:---------------------------------------------------------------
D:---------------------------------------------------------------
A:---------------------------------------------------------------
E:-1-1-1--3-3-3-3-0-0-0-3-5-5-5-3-1-1-1-3-3-3-3--

chorus
G:---------------------------------------------------------------
D:---------------------------------------------------------------
A:-3-3-5-5-3-3-5-5-----------------------------------------
E:-----------------------5-5-5-5-5-5-5-5-------------------




Ваше мнение



Капча