NOFX, total bummer.
Tabbed by raul galindo, [email protected]

#----------------------------------PLEASE NOTE--------------------------------#
#This file is the author's own work and represents their interpretation of the#
#song. You may only use this file for private study, scholarship, or research.#
#-----------------------------------------------------------------------------#
#-- File created with Instab - http://www.pconline.com/~smcarey/instab.html --#
#-----------------------------------------------------------------------------#

Author/Artist: NOFX
Title: TOTAL BUMMER
Album: PUMP UP THE VALUUM
Transcribed by: Raul Galindo
Email: [email protected]

intro:

-|----------------------------------------------------------------------------
-|----------------------------------------------------------------------------
-|-14-----12----14----12------------------------------------------------------
-|-14-----12----14----12------------------------------------------------------
-|-12-----10----12----10------------------------------------------------------
-|----------------------------------------------------------------------------
Verse :

-|----------------------------------------------------------------------------
-|----------------------------------------------------------------------------
-|-14-14-14-14-14-14-14-14-14-14-14-12-12-12-12-12-12-12-12-12-12-12----------
-|-14-14-14-14-14-14-14-14-14-14-14-12-12-12-12-12-12-12-12-12-12-12----------
-|-12-12-12-12-12-12-12-12-12-12-12-10-10-10-10-10-10-10-10-10-10-10----------
-|----------------------------------------------------------------------------
Chorus:

-|----------------------------------------------------------------------------
-|----------------------------------------------------------------------------
-|-777777777-777777777-101010101010101010-555555555---------------------------
-|-777777777-777777777-101010101010101010-555555555---------------------------
-|-555555555-555555555--8-8-8-8-8-8-8-8-8-333333333---------------------------
-|----------------------------------------------------------------------------
Bridge (before solo)

-|----------------------------------------------------------------------------
-|----------------------------------------------------------------------------
-|-7-----5-----10-----5-----7-----5-----10-----5------------------------------
-|-7-----5-----10-----5-----7-----5-----10-----5------------------------------
-|-5-----3------8-----3-----5-----3------8-----3------------------------------
-|----------------------------------------------------------------------------
Solo:(a pathetic attempt)

-|----------------------------------------------------------------------------
-|----------------------------------------------------------------------------
-|-------14v----14b^--12------------------------------------------------------
-|-14-17-----------------14-12----12-14-14b-----------------------------------
-|-----------------------------14--------------14p12-----------------14p12----
-|---------------------------------------------------15-14-12-14-15--------15-


-|----------------------------------------------------------------------------
-|----------------------------------------------------------------------------
-|----------------------------------------------------------------------------
-|--------------14^14b-14b-14b------------------------------------------------
-|----------------------------------------------------------------------------
-|14-12-14-15-----------------------------------------------------------------
ending riff:

-|----------------------------------------------------------------------------
-|----------------------------------------------------------------------------
-|-777777777-777777777-101010101010101010-555555555-2--x12-----x11-----x10----
-|-777777777-777777777-101010101010101010-555555555-2--x12-x12-x11-x12-x10x6--
-|-555555555-555555555--8-8-8-8-8-8-8-8-8-333333333-0--x10-----x9-------x8----
-|----------------------------------------------------------------------------

Song goes like this:
- Intro (do a pickslide fisrt)
- Verse x2
- Chorus x2
- Verse x2
- Chorus x2
- Bridge x1
- Solo (Verse playing in the background)
- Chorus x1
- Ending riff x1




Ваше мнение



Капча