From: [email protected]
Date: Sat, 16 Dec 1995 12:31:00 -0500
Subject: The Quass by NOFX

Song: the Quass
Band: NOFX
Album: Punk in Drublic
posted by: [email protected]
=0D
i don't know all of this song yet, but i know most of it.
i'll post it again once i finish, but this should be enough for now
=0D
CHORD
=0D
Em
|-------|
|-------|
|-------|
|---2---|
|---2---|
|---0---|
=0D

palm mute Em every few seconds for a while, then come in with this riff:
=0D
PM--|
|--------------------------------------------------------|
|--------------------------------------------------------|
|--------------------------------------------------------|
|--0--10--12--0--10--12--0--10--12--0--10--12---2--2-----|
|--0--10--12--0--10--12--0--10--12--0--10--12---2--2-----|
|--0--10--12--0--10--12--0--10--12--0--10--12---0--0-----|
=0D
play that a few times, then all instruments except bass stop, and
the bass plays this riff:
=0D
|--------------------------|
|--------------------------|
|--------------------------|
|--0--0--0--0--0--0--0--0--|
=0D
that's all i have for now. i'm working on the part when he says "the qua=
ss!"
and that should be it. if anyone gets it first, send it to me.
send all questions, comments, punk tabs, and\or requests(i'll do my best)=

to me at: [email protected]
=0D
OI!=

--PART.BOUNDARY.0.427.mail06.mail.aol.com.819135059--




Ваше мнение



Капча