The Longest Line
by NOFX
From the EP The Longest Line
Please send corrections to [email protected]
This song only has a few chord progressions so i'll write them out and you
can figure out what order to put em in by yourself. It shouldn't be too hard
if you have the album. Find the Rythem yourself too.
Intro
E|-------------------|
B|-------------------|
G|------------5------|
D|---5----6---5------|
A|---5----6---7------|
E|---7----8----------|
Verses (just play this over a few times)
E|------------------------------------------------------------|
B|------------------------------------------------------------|
D|---5------------------------5-------------------------------|
G|---5----5----7--------5-----5-------5------3---------7--5---|
A|---3----5----7--------5-----3-------5------3---------7--5---|
E|--------3----5--------3-------------3------1---------5--3---|
Bridge (I dunno what a Bridge is but it looks good here eh?)
I must have done something wrong.....
E|-------------------------------------------------------------|
B|-------------------------------------------------------------|
D|-------------------------------------------------------------|
G|--3----------5---------------7---------------8---------------|
A|--3----------5---------------7---------------8---------------|
E|--1----------3---------------5---------------6---------------|
Chorus
E|--------------------------------------------------------------|
B|--------------------------------------------------------------|
D|---5--------------------------5----7----10--------------------|
G|---5-----5-----7----2----3----5----7----10--------------------|
A|---3-----5-----7----2----3----3----5-----8--------------------|
E|---------3-----5----0----1------------------------------------|
I think that's about it, Please post any NOFX songs that you know, especially
Stickin in my eye and anything off Ribbed, Thanks.
Wheelz




Ваше мнение



Капча