NOFX - The Longest Line
Submitted By: aj
EMail: [email protected]
chords
c g a f e d f* a#
1-------------------------
2-------------------------
3--5--------------7--10---
4--5--5--7--3--2--7--10-8--
5--3--5--7--3--2--5--8--8--
6-----3--5--1--0--------6--
verse(palm mute most of it)
c g a g
in the darkest tunnel its nice to see a light not just a headlight
c g f a(no pm) g(no pm)
like the one that's headed right for me
same progression until (no pm)
f
i must have
g a
done something wrong
a#
or maybe pissed off god
Chorus
c g a
at the end of the longest line
e f
thats where i will always be
c
if u need to find me
d f*
just go to the ennd of the longest line
solo
1------------------------------------------------------------------------
2------------------------------------------------------------------------
3----------------------------------------------------------10-9-9--------
4------------------------------------------------9-9-10-10-------10-10-12
5-----10-8-7--------------7-7-8-8-7--------------------------------------
6--8---------10-10-8-8-10-----------10-10-8-8-10-------------------------
solo (continued)
1-----------------------
2-----------------------
3-9-9-10-12-10-9-10-9---
4---------------------10
5-----------------------
6-----------------------
===========
The Longest Line
by NOFX
From the EP The Longest Line
Please send corrections to [email protected]
This song only has a few chord progressions so i'll write them out and you
can figure out what order to put em in by yourself. It shouldn't be too hard
if you have the album. Find the Rythem yourself too.
Intro
E|-------------------|
B|-------------------|
G|------------5------|
D|---5----6---5------|
A|---5----6---7------|
E|---7----8----------|
Verses (just play this over a few times)
E|------------------------------------------------------------|
B|------------------------------------------------------------|
D|---5------------------------5-------------------------------|
G|---5----5----7--------5-----5-------5------3---------7--5---|
A|---3----5----7--------5-----3-------5------3---------7--5---|
E|--------3----5--------3-------------3------1---------5--3---|
Bridge (I dunno what a Bridge is but it looks good here eh?)
I must have done something wrong.....
E|-------------------------------------------------------------|
B|-------------------------------------------------------------|
D|-------------------------------------------------------------|
G|--3----------5---------------7---------------8---------------|
A|--3----------5---------------7---------------8---------------|
E|--1----------3---------------5---------------6---------------|
Chorus
E|--------------------------------------------------------------|
B|--------------------------------------------------------------|
D|---5--------------------------5----7----10--------------------|
G|---5-----5-----7----2----3----5----7----10--------------------|
A|---3-----5-----7----2----3----3----5-----8--------------------|
E|---------3-----5----0----1------------------------------------|
I think that's about it, Please post any NOFX songs that you know, especially
Stickin in my eye and anything off Ribbed, Thanks.
Wheelz




Ваше мнение



Капча