HAPPY GUY by NOFX. Album : Punk in drublic (1994) 1/2
Cool riffs.
A=left guitar B=right guitar A&B=both
:
# intro #A >>>to next page...
HAPPY GUY 2/2
:
# bridge #A&B X2 *=play 6X #=play 16X palm-muted ('Cause he knows...)
E-------------------------------------------------|
B----------------*--------------------------------|
G----*-----*----5------*-----*-----*-----#--------|
D---7-----3-----5-----5-----7-----8-----3---------|
A---7-----3-----3-----5-----7-----8-----3---------|
E---5-----1-----------3-----5-----6-----1---------|
: v=vibrato
# solo #A !GuitarB plays introB! p=pull-off b=bend up to next note >
E------------------------------------------15-------------------------------->
B---17p15--17--17p15--17--17p15-----/17-18----18-17-15-17p15----15b17-15b17-->
G--------17---------17---------17---------------------------17--------------->
D---------------------------------------------------------------------------->
A---------------------------------------------------------------------------->
E---------------------------------------------------------------------------->
>soloA
>-------------------------------|
>-15v---------------------------|
>-------10p9--12-10p9-10p9------|
>-----------10-------------10---|
>-------------------------------|
>-------------------------------|
:
# outro #A !play all notes X10! *=play once
E-------------------------------------------|
B-------------------------------------------|
G---5----------------------10------------*--|
D---5----------------------10-----6-----5---|
A---3-----5-----7-----5-----8---------------|
E-------------------------------------------|
# outro #B !play all notes X10! *=play once
E-------------------------------------------|
B-------------------------------------------|
G---5------------------------------------*--|
D---5-----0-----7-----5-----3-----3-----2---|
A---3-----2-----7-----5-----3-----3---------|
E---------------5-----3-----1-----1---------|
:
Yeah!
Tabbed by Jussi Heinonen 21.07.1998.




Ваше мнение



Капча