The Brews off NOFX's worst CD Punk In Drublic

Verse
-------------------------------------------------------------------------
-------------------------------------------------------------------------
----2--2--2--2--2--2--2--2--2-----------------7--7--7--7-----------------
-------------------------------2--2--2--2--2--------------7--7--7--7--2--
Orthapedic, Dr. Martins good for...
-------------------------------------------------------------------------
-------------------------------------------------------------------------
-------------------------------------------------------------------------
----2--2--2--2--2--2--2--------------------------------------------------

Chorus
-------------------------------------------------------------------------
-------------------------------------------------------------------------
----7--7--7--7--7--7--7--7--7--7--9--9--9--9--9--9-----------------------
----------------------------------------------------7--7--7--7--7--------
We're the Brews...

There ya are. Mail me.
Fat Rob
[email protected]




Ваше мнение



Капча