song: the black and white
band: NOFX
Album: Heavy Petting Zoo
tabbed by: Carlos Pino
intro - repeat the first part several times
G|-----------------------------------------------------------
D|-----------------------------------------------------------
A|-----------------------------------------------------------
E|-0-x-x-x-0-x-x-x-0-2-3-x-x-x-3-x-x-x-x-x-x-
verse - play a couple of times
G---------------------------------------------------------------------------
D|---------------------------------------------------------------------------
A|-7-7-7-7-7-7-7-7--9--9--9--9--9--9--9--9-5-5-5-5-5-5-5-5--5--5--5--5--5--5-
E|---------------------------------------------------------------------------
G:-----------------------------------------------------------------------------------|
D:-----------------------------------------------------------------------------------|
A:-5-3-3-3-3-3-3-3-3-3--------------------------------------------------------|
E: ---------------------------1-1-1-1-1-1-1-1--3-3-3-3-3-3-3-3-3-3-3-3-|
chorus - play the first part twice
G|--------------------------------------------------------------------------------------------------
D|---------------------------------------------------------------------------------------------------
A|----------------------------------------------3-3-3-3-3-3-3-3--8--8--8--8--8--8--8--8--
E|-5-5-5-5-5-5-5-5-3-3-3-3-3-3-3-3-------------------------------------------------------
G:-------------------------------------------------------------------------------------------|
D:------------------------------------------------------------------------------------------|
A:-3-3-3-3-3-3-3-3--------------------------------------------------------------------|
E:-----------------------3-3-3-3-3-3-3-3-1-1-x-x-1-1-x-x-1-1-x-x-1-1-x-x--|
then...
G|------------------------------------------------------------------------------------------|
D|------------------------------------------------------------------------------------------|
A|-3-3-3-3-3-3-3-3--------------------------------------------------------------------|
E|-----------------------3-3-3-3-3-3-3-3-1-1-1-1-1-1-1-1-3-3-3-3-3-3-3-3--|
outro - play a couple times
G|---------------------------------------------------|
D|----------------------------------------------------|
A|-3-3---------3-3---------3-3--------5-5-------|
E|-------3-1---------3-5--------3-5--------5-3-|




Ваше мнение



Капча