-----------------------------------------------------------------------
Telling Tim - NOFX
-----------------------------------------------------------------------

Intro - x4
|---------------------------|
|*-------------------3-3-3-*|
|*-3-3-3-0-0-0-------------*|
|--------------3-3-3--------|

Verse -
|-----------------------------------------------------------------|
|---------3-3-3-3-------------------------5-5-5-5-3-3-3-3-3-3-3-3-|
|-3-3-3-3---------3-3-3-3-3-3-3-2---------------------------------|
|---------------------------------5-5-5-5-------------------------|

|---------------------------------------------------------|
|---------3-3-3-3-------------------------3-3-3-3-3-3-3-3-|
|-3-3-3-3---------3-3-3-3-3-3-3-2-------------------------|
|---------------------------------5-5-5-5-----------------|




Ваше мнение



Капча