NOFX - Stranger Than Fishin
By:Andrew Mcshan([email protected])

Intro
E-------------------|
B-------------------|
G---7---------------|
D---7---9---9-------|
A---5---7---9-------|
E---5---7---7-------|
Verse
E----------------------------------------------------------------------------|
B----------------------------------------------------------------------------|
G---7---------------7---------------7---------------7------------------------|
D---7---9---9-------7---7---5-------7---9---9-------7-------7-------5-------5|
A---5---7---9-------5---7---5-------5---7---9-------5-------7-------5-------5|
E---5---7---7-------5---5---3-------5---7---7-------5-------5-------3-------3|

E-----------------------------------|
B-----------------------------------|
G------------------11---9---8-------|
D-----------------------------------|
A-------------------9---7---6-------|
E-----------------------------------|
Bridge
E-------------------------------|
B-------------------------------|
G-----------7-------9------12---|
D---5-------7-------9------12---|
A---5-------5-------7------10---|
E---3---------------------------|
Outro
E-|---------------|-----------------|
B-|---------------|-----------------|
G-|-7-------------|-7---------------|
D-|-7---9---9-----|-7---7---55555---|
A-|-5---7---9-----|-5---7---55555---|
E-|-5---7---7-----|-5---5---33333---|
Got a no string guitar, got a sunn beta head
I'm a rock 'n' roll star
I ain't no musician some things are stranger than fishin

Got a beat on a drum no how to sing outta key
Got some illegal drugs
I ain't no musician some things are stranger than fishin

I know what I I'm weight out another gram
Some of us have all the luck
No matter how much we fucking suck


Ваше мнение



Капча