STRANDED by NOFX. Album: The Longest Line (1991) 1/3
Pure power with outrageous solo!!!!
A=Melvin B=El Hefe A&B=both
:
# intro #A&B
E---------3--3-------3--3-------3--3---------------|
B---------3--3-------3--3-------3--3-7-7-7-7-7-7---|
G---------4--4-------4--4-------4--4-7-7-7-7-7-7---|
D---7-7-7-5--5-7-7-7-5--5-7-7-7-5--5-7-7-7-7-7-7---|
A---7-7-7-5--5-7-7-7-5--5-7-7-7-5--5-5-5-5-5-5-5---|
E---5-5-5------5-5-5------5-5-5--------------------|
:
# intro2 #A&B *=play 5-6X %=pause >>>>>to next page...
:
:
:
:
:
:
:
:
STRANDED 2/3
# bridge2 #A
E-------------------------------------------------------|
B-------------------------------------------------------|
G-------------------------------------------------------|
D---2--4-2--4-2-4-2--4-2--4-2-4-2--4-2--4-2-4-4--2--2---|
A-------------------------------------------------------|
E-------------------------------------------------------|
# bridge2 #B
E-------------------------------------------------------|
B-------------------------------------------------------|
G-----------------7-7-7-----------------------9-9-9-----|
D---4-4-4---------7-7-7---------7-7-7---------9-9-9-----|
A---4-4-4---------5-5-5---------7-7-7---------7-7-7-----|
E---2-2-2-----------------------5-5-5-------------------|
:
# verse3 #A&B %=pause (Hit me in the gut...)
E-------------------------------------------------------|
B-------------------------------------------------------|
G-----------------7-7-------------------------9-9-------|
D---4-4-----------7-7-----------7-------------9-9-------|
A---4-4-%%%%%%%%%-5-5-%%%%%%%%%-7-%%%%%%%%%%%-7-7-%%%%%-|
E---2-2-------------------------5-----------------------|
:
# bridge3 #A (Sitting alone...)
E---------------------------------------------------------------------|
B---------------------------------------------------------------------|
G---11-11----11-----7-7-----7----------------------9-9------9---------|
D---11-11----11-----7-7-----7-------7-7-----7------9-9------9---------|
A-----------------------------------7-7-----7-------------------------|
E---------------------------------------------------------------------|
# bridge3 #B !palm-muted!
E---------------------------------------------------------------------|
B---------------------------------------------------------------------|
G-------------------7-7-7-7-7-7-7-7-----------------9-9-9-9-9-9-9-9---|
D---4-4-4-4-4-4-4-4-7-7-7-7-7-7-7-7-7-7-7-7-7-7-7-7-9-9-9-9-9-9-9-9---|
A---4-4-4-4-4-4-4-4-5-5-5-5-5-5-5-5-7-7-7-7-7-7-7-7-7-7-7-7-7-7-7-7---|
E---2-2-2-2-2-2-2-2-----------------5-5-5-5-5-5-5-5-------------------|
:
# solo-background #A >
E----------------------------------------------------------------------->
B----------------------------------------------------------------------->
G------------------7-7--7----------------------------------------------->
D---4-4--4-4-2--4--7-7--7--------7-7--7-7-7--7--2-------4---4---4---4--->
A---4-4--4-4-2--4--5-5--5-4-4--4-7-7--7-7-7--7--2-------4---4---4---4--->
E---2-2--2-2-0--2---------5-5--5-5-5--5-5-5--5--0-------2---2---2---2--->
# solo #B b=bend-up h=hammer-on p=pull-off >
E----------------------------------------------------------------------->
B---------------7-5----------------------------------------------------->
G---5b7-------5-----6-5-4----------------------------------------------->
D-------------------------7-4---7-4-----------------------------2h4p2h4->
A-----------------------------7-----7-4-7-4-3-2-2-------2h4p2h4--------->
E----------------------------------------------------------------------->
>solo-backgroundA >
>--------------------------------------------------------------------------->
>--------------------------------------------------------------------------->
>---------7---7---7--------------------------------------------------------->
>-2---4---7---7---7---------------7---7---7---7---7---7---9---9--9--9--9--9->
>-2---4---5---5---5---4---4---4---7---7---7---7---7---7---9---9--9--9--9--9->
>-0---2---------------5---5---5---5---5---5---5---5---5---7---7--7--7--7--7->
>soloB /=slide-up >
>--------------------------------------------------------------------------->
>-------------------------------------------------7-5----------------------->
>-2h4p2h4-------------------------2-----2---5b7-------6-5-4-2-4-2-----/////->
>-------------------------2h4p2h4---4p2------------------------------------->
>---------2h4p2h4-2h4p2h4--------------------------------------------------->
>--------------------------------------------------------------------------->
>>>>>>>>>>>>>>to next page...
STRANDED 3/3
:
>solo-backgroundA
>----------------------------------------------------------------------------|
>----------------------------------------------------------------------------|
>---7-------7-------7-------7-------7-------7--------------------------------|
>---7-------7-------7-------7-------7-------7------7----7---7----7---7----7--|
>---5-------5-------5-------5-------5-------5------7----7---7----7---7----7--|
>--------------------------------------------------5----5---5----5---5----5--|
>soloB /=slide-up
>-------12----------12----------12----------12-------------------------------|
>-12h14---h14-12h14---h14-12h14---h14-12h14---h14-17b19--17-14-13-12---------|
>--------------------------------------------------------------------14-11-14|
>----------------------------------------------------------------------------|
>----------------------------------------------------------------------------|
>----------------------------------------------------------------------------|
:
# outro #A&B *=play 6X
E-------------------------------|
B--------*---------------*------|
G-------7----*---*---*--7-------|
D---4---7---7---2---4---7---2---|
A---4---5---7---2---4---5---2---|
E---2-------5---0---2-------0---|
:
Over and done... DAM!!!!!!
Tabbed by Jussi Heinonen 15.05.1998.




Ваше мнение



Капча