Intro:
D:-5-5-5-5-5-4-4-4-5-5-5-2-2-2-2-1
A:-7-7-7-7-7-5-5-5-7-7-7-2-2-2-2-2
E:-0-----let ring--0--------------

Verse:
G:-9-11-12-11-7-11-12-11-5-11-12-11-8-8-9-11
D:------------------------------------------
A:-7--9-10--9-5--9-10--9-3--9-10--9-6-6-7-9-
E:------------------------------------------

Chorus:
G:-9-9-9-9------------------------
D:-9-9-9-9-5-5-5-5-7-7-7-7-9-9-9-9
A:-7-7-7-7-5-5-5-5-7-7-7-7-9-9-9-9 on 4th time play B twice as long, then
E:---------3-3-3-3-5-5-5-5-7-7-7-7

End Chorus:
G:-9-9-----------------5-7-
D:-9-9-12-12-12-14-/-/-5-7-
A:-7-7-10-10-10-12-/-/-3-5-

B:---------8/5/0/5-
G:-----5/7---------
D:-5/7-------------

D:-9-9-9-9-9-9-9-9-9-9-9-9-9-9-9-9- You can figure out the strumming and
A:-7-7-7-7-7-7-7-7-7-7-7-7-7-7-7-7- where to palm mute

Verse:
Chorus:
Outro: same as end chorus




Ваше мнение



Капча