Standard tuning
pm...= palm mute
^ = harmonic
p = Pull off
h = hammer on
intro riff: Acoustic w/chorus effect
|----------------------------------------------------------------------------
|----------------------------------------------------------------------------
|----------------------------------------------------------------------------
|-5-5-5-5-5-4-4-4-5-5-5-2-2-2-2p1--5-5-5-5-5-4-4-4-5-5-5-2-2-2-2p1-----------
|-5-5-5-5-5-5-5-5-3-3-3-2-2-2-2----5-5-5-5-5-5-5-5-3-3-3-2-2-2-2-------------
|----------------------------------------------------------------------------
Repeat x3
Pre-verse riff: Distorted
|----------------------------------------------------------------------------
|----------------------------------------------------------------------------
|-----11-12-11--------11-12-11--------11-12-11-------------------------------
|-9-9--x--x--x----7-7--x--x--x----5-5--x--x--x--4-4-5--5-5-------------------
|-7-7--9-10--9----5-5--9-10--9----3-3--9-10--9--2-2-3--3-3-------------------
|----------------------------------------------------------------------------
Repeat x2

Verse: fast strumming (listen to the song 4 the rhythm)
|----------------------------------------------------------------------------
|----------------------------------------------------------------------------
|----------------------------------------------------------------------------
|-9-9-9-9--7-7-7-7--5-5-5-5--4-4-4-4--9-9-9-9--7-7-7-7--5-5-5-5--4-4-4-4-----
|-7-7-7-7--5-5-5-5--3-3-3-3--2-2-2-2--7-7-7-7--5-5-5-5--3-3-3-3--2-2-2-2-----
|----------------------------------------------------------------------------
|----------------------------------------------------------------------------
|----------------------------------------------------------------------------
|----------------------------------------------------------------------------
|-9-9-9-9--7-7-7-7--5-5-5-5--4-4-4-4--9-9-9-9--7-7-7-7--5-5-5-5--------------
|-7-7-7-7--5-5-5-5--3-3-3-3--2-2-2-2--7-7-7-7--5-5-5-5--3-3-3-3--2-2-2-2-2---
|----------------------------------------------------------------------------
pm. . . . .
Chorus:
|----------------------------------------------------------------------------
|----------------------------------------------------------------------------
|----------------------------------------------------------------------------
|----------------------------------------------------------------------------
|-2-2-2-2--5-5-5-5-5--7-7-7-7--9-9-9-9-9-------------------------------------
|-0-0-0-0--3-3-3-3-3--5-5-5-5--7-7-7-7-7-------------------------------------
Repeat x2
Instrumental:
|----------------------------------------------------------------------------
|----------------------------------------------------------------------------
|----------------------------------------------------------------------------
|-9--9-9-12-12---12--^----5---7-------9--9-9-12-12---12--^----5---7----------
|-7--7-7-10-10---10-12----3---5-------7--7-7-10-10---10-12----3---5----------
|----------------------------------------------------------------------------
pm. . pm. .
|----------------------------------------------------------------------------
|----------------------------------------------------------------------------
|-----------------------------------------------------------------------12---
|-9--9-9-12-12---12--^----5---7-------9--9-9-12-12---12--^---------12h14--14-
|-7--7-7-10-10---10-12----3---5-------7--7-7-10-10---10-12----12h14----------
|----------------------------------------------------------------------------
pm. . pm. .
|-----------------------------------------------------------------------------
|-----------------------------------------------------------------------------
|-----------------------------------------------------------------------------
|12h14----------9-----------9-----------9-----------9-----------9-----------9-
|------7--7-7-7-7--7--7-7-7-7--7--7-7-7-7--7--7-7-7-7--7--7-7-7-7--7--7-7-7-7-
|-----------------------------------------------------------------------------
pm. . . . . . . . . . . . . . . . . . . . . . . .
|-------------------------------------------------------------------------------
|-------------------------------------------------------------------------------
|---------------------------11-12-11--------11-12-11--------11-12-11------------
|-----------9-----------9-9--x--x--x----7-7--x--x--x----5-5--x--x--x--4-4-5--5-5
|--7--7-7-7-7--7--7-7-7-7-7--9-10--9----5-5--9-10--9----3-3--9-10--9--2-2-3--3-3
|-------------------------------------------------------------------------------
. . . . . . . . Pre-verse 2, repeat x2
Repeat verse 1
repeat chorus
After chorus go straight onto the pre-verse riff again
|----------------------------------------------------------------------------
|----------------------------------------------------------------------------
|-----11-12-11--------11-12-11--------11-12-11-------------------------------
|-9-9--x--x--x----7-7--x--x--x----5-5--x--x--x--4-4-5--5-5-------------------
|-7-7--9-10--9----5-5--9-10--9----3-3--9-10--9--2-2-3--3-3-------------------
|----------------------------------------------------------------------------
|-----------------------------------------------------------------
|-----------------------------------------------------------------
|-----11-12-11--------11-12-11--------11-12-11--------------------
|-9-9--x--x--x----7-7--x--x--x----5-5--x--x--x--4-4-5--5-5-5-----2
|-7-7--9-10--9----5-5--9-10--9----3-3--9-10--9--2-2-3--3-3-3-----0 Let ring
|-----------------------------------------------------------------
Coda:
|----------------------------------------------------------------------------
|----------------------------------------------------------------------------
|----------------------------------------------------------------------------
|-9--9-9-12-12---12--^----5---7-------9--9-9-12-12---12--^----5---7----------
|-7--7-7-10-10---10-12----3---5-------7--7-7-10-10---10-12----3---5----------
|----------------------------------------------------------------------------
pm. . pm. .
|----------------------------------------------------------------------------
|----------------------------------------------------------------------------
|-----------------------------------------------------------------------12---
|-9--9-9-12-12---12--^----5---7-------9--9-9-12-12---12--^---------12h14--14-
|-7--7-7-10-10---10-12----3---5-------7--7-7-10-10---10-12----12h14----------
|----------------------------------------------------------------------------
pm. . pm. .
|----------------
|----------------
|----------------
|12h14-----------
|----------------
|----------------




Ваше мнение



Капча