Реальная песня, реальной группы. Но ближе к делу. И так, композиция данная по задумке весьма простая. Особенна классная фишка петь с запозданием куплет.

Вступление. Оно то играется на басу, но если у вас его нет, то сгодится гитара с нейлоновыми струнами :)

3|---------------------------------
4|--5-5-5-55/44-4--5-5-5-2-2-1-1--- играется оно до 20 секунды песени
5|--7-7-7-77/55-5--3-3-3-2-2-2-2---
6|---------------------------------

1|--------------------------------------------------
2|--------------------------------------------------
3|--9--------------7-------------5------------4-----
4|--9--4-5-4------7--4-5-4----5--4-5-4----4--4-5-4-- 2x раза
5|--7--------------5-------------3------------2-----
6|--------------------------------------------------

Куплет:

1|---------------------------
2|---------------------------
3|--99999-77777-55555-44444--
4|--99999-77777-55555-44444-- 4х раза
5|--77777-55555-33333-22222--
6|---------------------------

Припев:

1|---------------------------
2|---------------------------
3|---------------------------
4|--22222-55555-77777-99999-- сколько он играется я не помню,
5|--22222-55555-77777-99999-- по-моему тоже 4 раза.
6|--00000-33333-55555-77777--

А дальше проигрыш (Bridge по-англицки :) и соло, или что-то вроде того:

Проигрыш: Соло:
1|------------------------- 1|-----------3-0---------
2|------------------------- 2|------0-3-----3-0-5--
3|--4-4х-7-7-7/9*---------- 3|--0-2------------------
4|--2-2х-5-5-5/7--5-4------ 4|------------------------
5|-------------------3-2--- 5|------------------------
6|------------------------- 6|------------------------

* - я так думаю здесь берется флажолет
сам проигрыш играется 4 раза, но за четвертым не играются последние две квинты.

Потом опять куплет, припев, короче то же самое. Надеюсь всем все понятно. Какие вопросы или ошибки у меня пишите.

EsidreX




Ваше мнение



Капча