Shut Up Already by NOFX
ALBUM: LIBERAL ANIMATION
By:Stash Fortier([email protected])
INTRO Guitar 1
e|--------------------------------------------------------------------|
B|--------------------------------------------------------------------|
G|-3-3-3-3-3-3-3-3-3-3-3-3-3-3-3-3-3-3-3-3-3-3-3-3-3-3-3-3-3-3-3-3----|
D|-3-3-3-3-3-3-3-3-3-3-3-3-3-3-3-3-3-3-3-3-3-3-3-3-3-3-3-3-3-3-3-3----|
A|-1-1-1-1-1-1-1-1-1-1-1-1-1-1-1-1-1-1-1-1-1-1-1-1-1-1-1-1-1-1-1-1----|
E|--------------------------------------------------------------------|
PM.............................................................
INTRO Guitar 2
e|-------------------|------------------------------------------------|
B|-------------------|------------------------------------------------|
G|-5-5-5-5---8-8-8-8-|-3---6---3-3-------10-10--3----6---3-3-3-3------|
D|-3-3-3-3---6-6-6-6-|-3---6---3-3--X3---8--8---3----6---3-3-3-3------|
A|-------------------|-1---4---1-1--------------1----4---1-1-1-1------|
E|-------------------|------------------------------------------------|
PM...............
e|--------------------------------------------------------------------|
B|--------------------------------------------------------------------|
G|-6-6-6-6--8-8-8-8--3-3-3-3--3-3-3-3--6-6-6-6--8-8-8-8---3-3--2--3---|
D|-6-6-6-6--8-8-8-8--3-3-3-3--3-3-3-3--6-6-6-6--8-8-8-8---3-3--2--3---|
A|-4-4-4-4--6-6-6-6--1-1-1-1--1-1-1-1--4-4-4-4--6-6-6-6---1-1--0--1---|
E|--------------------------------------------------------------------|
VERSE
e|--------------------------------------------------------------------|
B|--------------------------------------------------------------------|
G|------8-10-8----8-10-8----------------------------------------------|
D|-8-8--8-10-8-8--6-8--6--x8------------------------------------------|
A|-8-8--6-8--6-8------------------------------------------------------|
E|-6-6---------6------------------------------------------------------|
CHORUS
e|--------------------------------------------------------------------|
B|--------------------------------------------------------------------|
G|-6-6-6-6--8-8-8-8--6-6-6-6--3-3-3--3-3-3--6-6-6-6--8-8-8-8----------|
D|-4-4-4-4--6-6-6-6--6-6-6-6--3-3-3--3-3-3--4-4-4-4--6-6-6-6----------|
A|-------------------4-4-4-4--1-1-1--1-1-1----------------------------|
E|--------------------------------------------------------------------|
BRIDGE
e|--------------------------------------------------------------------|
B|--------------------------------------------------------------------|
G|-6-6-6--5--3-3-3---6-3-6-3-6-------------------6-3-6-3-6---3--------|
D|-6-6-6--5--3-3-3---6-3-6-3-6--4-4-4-4-4-4-4-4--6-3-6-3-6---3--------|
A|-4-4-4--3--1-1-1---4-1-4-1-4--4-4-4-4-4-4-4-4--4-1-4-1-4---1--------|
E|------------------------------2-2-2-2-2-2-2-2-----------------------|
PM.............
e|--------------------------------------------------------------------|
B|--------------------------------------------------------------------|
G|--------6-3-6-3-6-------------------6-3-6-3-6-----------------------|
D|-----2--6-3-6-3-6--4-4-4-4-4-4-4-4--6-3-6-3-6-----------------------|
A|-2-4----4-1-4-1-4--4-4-4-4-4-4-4-4--4-1-4-1-4-----------------------|
E|-------------------2-2-2-2-2-2-2-2----------------------------------|
PM.............
REPEAT VERSE
REPEAT CHORUS
REPEAT VERSE
END
e|--------------------------------------------------------------------|
B|--------------------------------------------------------------------|
G|-3-3-3-3-----------4--6--8b----8^10^8--6^8^6-----6------------------|
D|-3-3-3-3-x8--6--8-----------7-----------------8-----8--6--8-9-------|
A|-1-1-1-1------------------------------------------------------------|
E|--------------------------------------------------------------------|
e|--------------------------------------------------------------------|
B|--------------------------------------------------------------------|
G|--------------------------------------------------------------------|
D|-6--4-------------------------6--8-----6b---------------------------|
A|-------6--4--2--1-1-----6--8--------8------8------------------------|
E|--------------------------------------------------------------------|
LYRICS
VERSE
Affection not dissection
Meat is murder
Animals are for petting
Oh shut up already
CHORUS
I'm tired of you whining
About poor little animals dying
And the food they are supplying
Because if a big animal had the chance
It wouldn't take another glance
It would eat you up
CHORUS 2
I dont want to listen
And i'm tired of your bitchin
About what's in my kitchen
Because if a big animal had the chance
It wouldn't take another glance
It would eat you up
[email protected] for comments/questions


Ваше мнение



Капча