Shower days by NOFX
e-|---------|----------------------------------------------
B-|---------|----------------------------------------------
G-|----7----|--------------------------------------------9-
D-|-7--7--7-|----------------3-4-3-4-3----5-6-5-6-5---7----
A-|-7--5--7-|---2-3-2-3-2--5------------7-----------7------
E-|-5-----5-|-5--------------------------------------------
e-|-----------------------------------------------
B-|-----------------------------------------------
G-|---------------------------------------------9-
D-|-----------------3-4-3-4-3----5-6-5-6-5---7----
A-|----2-3-2-3-2--5------------7-----------7------
E-|--5--------------------------------------------
e-|------------------------------------------------------|
B-|------------------------------------------------------|
G-|---5-9-----10-9---------------------------------------|
D-|-7-5-9-9-7-10-9-10-10-10-7-x-7-x-7-7-7--7-x-7-x-7-7-7-|
A-|-7-3-7-9-7--8-7-10-10-10-7-x-7-x-7-7-7--7-x-7-x-7-7-7-|
E-|-5-----7-5-------8--8--8-5-x-5-x-5-5-5--5-x-5-x-5-5-5-|
e-|--------------------------------------------------------|
B-|--------------------------------------------------------|
G-|-----------------5-5-5-5-5-5-5-5------------------------|
D-|-7-7-7-7-7-7-7-7-5-5-5-5-5-5-5-5-5-5-5-5-5-5-5-5--3--5--|
A-|-7-7-7-7-7-7-7-7-3-3-3-3-3-3-3-3-5-5-5-5-5-5-5-5--3--5--|
E-|-5-5-5-5-5-5-5-5-----------------3-3-3-3-3-3-3-3--1--3--|
e-|-----------------------------------------------
B-|-----------------------------------------------
G-|---------------------------------------------9-
D-|-----------------3-4-3-4-3----5-6-5-6-5---7----
A-|----2-3-2-3-2--5------------7-----------7------
E-|--5--------------------------------------------
e-|-------------------------------------------------------------
B-|-------------------------------------------------------------
G-|---5------------------5-x-5-x--------------------------------
D-|-7-5-5--3--5--7-x-7-x-5-x-5-x-5-x-5-x--3-x-5-x-7-x-7-x-7-7-7-
A-|-7-3-5--3--5--7-x-7-x-3-x-3-x-5-x-5-x--3-x-5-x-7-x-7-x-7-7-7-
E-|-5---3--1--3--5-x-5-x---------3-x-3-x--1-x-3-x-5-x-5-x-5-5-5-
e-|---------------------------------------------
B-|---------------------------------------------
G-|-----------------------------5-5-x-----------
D-|-3-3-x-5-5-x-7-7-x-7-7-3-3-x-5-5-x-5-x-5-x-5-
A-|-3-3-x-5-5-x-7-7-x-7-7-3-3-x-3-3-x-5-x-5-x-5-
E-|-1-1-x-3-3-x-5-5-x-5-5-1-1-x-------3-x-3-x-3-
e-|-----------------------------------------------------------
B-|-----------------------------------------------------------
G-|-----------------------------------5-5-5-5-5-5-7-7-7-7-7-7-
D-|-3-3-x-5-5-x-7-7-x-7-7-3-3-3-3-3-3-5-5-5-5-5-5-7-7-7-7-7-7-
A-|-3-3-x-5-5-x-7-7-x-7-7-3-3-3-3-3-3-3-3-3-3-3-3-5-5-5-5-5-5-
E-|-1-1-x-3-3-x-5-5-x-5-5-1-1-1-1-1-1-------------------------
e-|-----------------------------------------------------|
B-|-----------------------------------------------------|
G-|-10-10-10-10-10-10-10-10-10-10-10-10-10-10-10-10-10--|
D-|-10-10-10-10-10-10-10-10-10-10-10-10-10-10-10-10-10--|
A-|--8--8--8--8--8--8--8--8--8--8--8--8--8--8--8--8--8--|
E-|-----------------------------------------------------|
e-|-------------------------------------------------
B-|-------------------------------------------------
G-|-------------------------------------------------
D-|-------------------------------------------------
A-|---2-3-2-3-2---3-2-3-2-3---2-3-2-3-2---3-2-3-2-3-
E-|-5-----------5-----------5-----------5-----------
e-|--------------------------------------
B-|--------------------------------------
G-|--------------------------------------
D-|-7-5-3-5-7----------------------------
A-|-7-5-3-5-7-2-3-2-3-2------2-3-2-3-2---
E-|-5-3-1-3-5-----------5--5-----------5-
this is where the solo comes in and i haven't figured it out note per
note yet but i'm pretty damn close... maybe i'll send it when its all
figured out...
e-|---------------------------------------------
B-|---------------------------------------------
G-|-----------------------------5-5-x-----------
D-|-3-3-x-5-5-x-7-7-x-7-7-3-3-x-5-5-x-5-x-5-x-5-
A-|-3-3-x-5-5-x-7-7-x-7-7-3-3-x-3-3-x-5-x-5-x-5-
E-|-1-1-x-3-3-x-5-5-x-5-5-1-1-x-------3-x-3-x-3-
e-|-----------------------------------------------------------
B-|-----------------------------------------------------------
G-|-----------------------------------5-5-5-5-5-5-7-7-7-7-7-7-
D-|-3-3-x-5-5-x-7-7-x-7-7-3-3-3-3-3-3-5-5-5-5-5-5-7-7-7-7-7-7-
A-|-3-3-x-5-5-x-7-7-x-7-7-3-3-3-3-3-3-3-3-3-3-3-3-5-5-5-5-5-5-
E-|-1-1-x-3-3-x-5-5-x-5-5-1-1-1-1-1-1-------------------------
e-|-----------------------------------------------------|
B-|-----------------------------------------------------|
G-|-10-10-10-10-10-10-10-10-10-10-10-10-10-10-10-10-10--|
D-|-10-10-10-10-10-10-10-10-10-10-10-10-10-10-10-10-10--|
A-|--8--8--8--8--8--8--8--8--8--8--8--8--8--8--8--8--8--|
E-|-----------------------------------------------------|
e-|---------------------------------------------
B-|---------------------------------------------
G-|---------------------------------------------
D-|--------------------------------------7-7-7--
A-|---2-3-2-3-2---3-2-3-2-3----2-3-2-3-2-7-7-7--
E-|-5-----------5------------5-----------5-5-5--




Ваше мнение



Капча