SHITTING BRICKS by NOFX. Album: Maximum Rocknroll (1988?)
One of the coolest NOFX-songs ever! Real killer-feeling and great and simple
riffs. This is the song to jump with!
:
:
# intro # # intro2 # X4 # intro3 #
E---------------| E------------------| E-----------------------------------|
B---------------| B------------------| B-----------------------------------|
G---------7-9---| G---7-9-9-12-9-9---| G---9---7-9---7-9---7-9-7-9-7-9-7-9-|
D---2-----7-9---| D---7-9-9-12-9-9---| D---9---7-9---7-9---7-9-7-9-7-9-7-9-|
A---2-----5-7---| A---5-7-7-10-7-7---| A---7---5-7---5-7---5-7-5-7-5-7-5-7-|
E---0-----------| E------------------| E-----------------------------------|
:
# verse # !Right Melvin takes pauses! *=play 6X
E-------------------------------------------------------------------->
B----*--------------------------------------------------------------->
G---9--------------------------------*------------------------------->
D---9-------------10-10-10-12-12-10-9-------------10-10-10-12-10-9--->
A---7-------------10-10-10-12-12-10-9-------------10-10-10-12-10-9--->
E------------------8--8--8-10-10--8-7--------------8--8--8-10--8-7--->
>verse
>------------------------------------------------------------------>
>------------------------------------------------------------------>
>----*-------*-------*-------*-------*-------*--------------------->
>---7-------3-------5-------2-------7-------3------10-9-5--7-7-7--->
>---7-------3-------5-------2-------7-------3------10-9-5--7-7-7--->
>---5-------1-------3-------0-------5-------1-------8-7-3--5-5-5--->
>verse
>-------------------------------|
>-------------------------------|
>----*-------*-------*-------*--| > Then play verse X4, now without
>---7-------3-------5-------2---| pause and six first chords!
>---7-------3-------5-------2---|
>---5-------1-------3-------0---|
:
# verse # !Right Melvin takes pauses! *=play 6X
E----------------------------------------------------------------------|
B----*-----------------------------------------------------------------|
G---9--------------------------------*---------------------------------|
D---9-------------10-10-10-12-12-10-9-------------10-10-10-12-10-9-7---|
A---7-------------10-10-10-12-12-10-9-------------10-10-10-12-10-9-7---|
E------------------8--8--8-10-10--8-7--------------8--8--8-10--8-7-5---|
:
Done!
Tabbed by Jussi Heinonen 26.04.1998.




Ваше мнение



Капча