REMNANTS by NOFX. Album: The Longest Line (1991) 1/4
Another supergreatriffs-song!
A=Melvin B=El Hefe A&B=both
:
# intro #A *=play 16X with lefthand-muting
E---------------------------------------------------------------------|
B----------------------------*----------------------------------------|
G---------------------------9-----------------------------------------|
D---6---7---6-7-----6-------9---------------6---7---6-7---7-6-7---5---|
A---------------7-------7---7---------------------------7-------7-----|
E---------------------------------------------------------------------|
# intro #B *=play 16X with lefthand-muting
E---------------------------------------------------------------------|
B----------------------------*----------------------------------------|
G---9-------9-------9-------9---------------9-------9-------9---------|
D---9---9---9---7---9--10---9---------------9---9---9---7---9--10-----|
A---7---9---7---7---7--10---7---------------7---9---7---7---7--10-----|
E-------7-------5-------8-----------------------7-------5-------8-----|
:
# verse #A X2 *=play 5-6X
E--------------------------------------------------------------------------|
B----*-------------*-------------*-----------------------------------------|
G---9-------*-----9-------*-----9------------------------------------------|
D---9------9------9----9-7------9-------*-----6-6-6-7-7-7-11-11-11-9-9-9---|
A---7------9------7----9-7------7------7-----------------------------------|
E----------7-----------7-5-------------------------------------------------|
# verse #B X2 *=play 5-6X
E--------------------------------------------------------------------------|
B----*-------------*-------------*-------------*-----------*---------------|
G---9-------*-----9-------*-----9-------*-----9-----------9----------------|
D---9------9------9----9-7------9-----10------9-----------9----------------|
A---7------9------7----9-7------7-----10------7-----------7----------------|
E----------7-----------7-5-------------8-----------------------------------|
:
# bridge #A
E----------------------------------------------------------------------------|
B----------------------------------------------------------------------------|
G-----------------------------------------------------7--7--7--7--7--7--7--7-|
D---5-5-5-6-6-6-9-9-9-7-7-7-------------7-7-7-6-6-6---7--7--7--7--7--7--7--7-|
A---------------------------7-7-7-9-9-9---------------5--5--5--5--5--5--5--5-|
E----------------------------------------------------------------------------|
# bridge #B
E----------------------------------------------------------------------------|
B----------------------------------------------------------------------------|
G---9-9-9-9-9-9-9-9-9-9-9-9-9-9-9-9-9-9-9-9-9-9-9-9---7--7--7--7--7--7--7--7-|
D---9-9-9-9-9-9-9-9-9-9-9-9-9-9-9-9-9-9-9-9-9-9-9-9---7--7--7--7--7--7--7--7-|
A---7-7-7-7-7-7-7-7-7-7-7-7-7-7-7-7-7-7-7-7-7-7-7-7---5--5--5--5--5--5--5--5-|
E----------------------------------------------------------------------------|
:
# bridge2 #A&B >to next page...
:
:
:
:
:
:
:
:
:
:
REMNANTS 2/4
:
# verse2 #A *=play 5-6X >
E---------------------------------------------------------------------->
B----*-------------*-------------*--------------------*------*------*-->
G---9-------*-----9-------*-----9-------------------12-----14-----14--->
D---9------9------9----9-7------9-------*------*----12-----14-----14--->
A---7------9------7----9-7------7------7------8-----10-----12-----12--->
E----------7-----------7-5--------------------------------------------->
# verse2 #B *=play 5-6X >
E---------------------------------------------------------------------->
B----*-------------*-------------*-------------*----------------------->
G---9-------*-----9-------*-----9-------*----10-------*------*------*-->
D---9------9------9----9-7------9-----10-----10------5------7------7--->
A---7------9------7----9-7------7-----10------8------5------7------7--->
E----------7-----------7-5-------------8-------------3------5------5--->
>verse2A m=mute
>-----------------/m---/m---/m---/m---/m---/m---/m-----|
>----*--------------------------------------------------------|
>--10-----------------4-----5-----7-----9-----4-----5-----7---|
>--10-------*---------4-----5-----7-----9-----4-----5-----7---|
>---8------7----------2-----3-----6-----7-----2-----3-----6---|
>----------8------0-0---0-0---0-0---0-0---0-0---0-0---0-0-----|
>verse2B
>-----------------/m---/m---/m---/m---/m---/m---/m-----|
>----*--------------------------------------------------------|
>--10-----------------4-----5-----7-----9-----4-----5-----7---|
>--10-------*---------4-----5-----7-----9-----4-----5-----7---|
>---8------7----------2-----3-----6-----7-----2-----3-----6---|
>----------8------0-0---0-0---0-0---0-0---0-0---0-0---0-0-----|
:

# acoustic bridge #B GuitarA is quiet >
E---------------------5---------------------------7----------------->
B-------3-3---------5---5-----------5-5---------7---7-----------3-3->
G-------3-3---------5-----5---------5-5---------7-----7---------3-3->
D-------5-5---------5---------------7-7---------7---------------5-5->
A-----------1-2-3-----------------------3-4-5----------------------->
E---3-----------------------3-4-5-----------------------5-4-3------->
>acoustic bridgeB /=slide-up
>-----------5---------------------------------------------------5------------|
>---------5---5-----------3-3---------5-5-4-------3-3---------5---5---------1|
>---------5-----5---------3-3---------5-5-5-5-----3-3---------5-----5-------2|
>---------5---------------5-5---------------------5-5---------5-------------3|
>-1-2-3-----------------------3/7-6-5-----------------1-2-3------------------|
>-----------------3-4-5-----------------------3-----------------------3-2-1--|
:
# bridge3 #A
E-------------------------------------|
B-------------------------------------|
G-------------------------------------|
D---2-5-4-3-2-5-4-3-2-4-5-9-8-5-8-9---|
A---2-5-4-3-2-5-4-3-2-4-5-9-8-5-8-9---|
E---0-3-2-1-0-3-2-1-0-2-3-7-6-3-6-7---|
# bridge3 #B %=pause
E-------------------------------------|
B-------------------------------------|
G-------------------------------------|
D---2-------2-5-4-3-2-4-5-9-8-5-8-9---|
A---2-------2-5-4-3-2-4-5-9-8-5-8-9---|
E---0-%%%%%-0-3-2-1-0-2-3-7-6-3-6-7---|
:
>>>>>>>>>>to next page...
:
:
:
:
:
:
REMNANTS 3/4
:
# solo-background #A *=play 6X >
E--------------------------------------------------------------------------->
B-------------------------------------*------------------*------------------>
G----*------------*------------------7------------------5--------*---------->
D---2------------5-------------------7------------------5-------2----------->
A---2------------5-------------------5------------------3-------2----------->
E---0------------3----------------------------------------------0----------->
# solo #B b=bend-up >
E---------------------------------------------------------------12-10----10->
B---15b17-15-12-15b17---15-12-11-10-----------------------------------12---->
G-----------------------------------12b14---9-7----------------------------->
D-----------------------------------------------9-8-7-5-5------------------->
A--------------------------------------------------------------------------->
E--------------------------------------------------------------------------->
>solo-backgroundA ----------------------------------------------------------------------------|
>----------------------------------------*-----------------------------------|
>------------------*--------------------7------------------*-----------------|
>-----------------5---------------------7-----------------7------------------|
>-----------------5---------------------5-----------------7------------
B------------------------*-------------------------*-->
G--12-12-12-12-12-14-12-9-------12-12-12-14-12-11-9--->
D--12-12-12-12-12-14-12-9-------12-12-12-14-12-11-9--->
A--10-10-10-10-10-12-10-7-------10-10-10-12-10--9-7--->
E----------------------------------------------------->
>outroA&B
>------------------------------------------------------------------------|
>------------------------*-----------------------------------------------|
>--12-12-12-12-12-14-12-9-------12-12-12-14-12----11-12----11-12----11---|
>--12-12-12-12-12-14-12-9-------12-12-12-14-12----11-12----11-12----11---|
>--10-10-10-10-10-12-10-7-------10-10-10-12-10-%%%-9-10-%%%-9-10-%%%-9---|
>------------------------------------------------------------------------|
:
>>>>>>>>>>>to next page...
:
:
:
:
REMNANTS 4/4
:
# outro2 #A X2 !=not first time >
E-----------------0!-------------------------------------------------->
B-----------------0!-------------------------------------------------->
G-----------------1!-------------------------------------------------->
D---2-------------------------------0--------------------------------->
A---2-------------------------------0--------------------------------->
E---0----------------------------------------------------------------->
# outro2 #B X2 >
E--------------------------------------------------------------------->
B--------------------------------------------------------------------->
G--------------------------------------------------------------------->
D---------------5---------5-------5-------------5---------5-------5--->
A-----------5-----7---5-7-----5-7-----------5-----7---5-7-----5-7----->
E---0-3-5-7---7---------------------0-3-5-7---7----------------------->
>outro2A
>-------------------------------------|
>-------------------------------------|
>-------------------------------------|
>--10-----------9-----7---------------|
>--10-----------9-----7---------------|
>---8-----------7-----5-------3-------|
>outro2B
E-------------------------------------|
B-------------------------------------|
G-------------------------------------|
D---------------5---------5-------5---|
A-----------5-----7---5-7-----5-7-----|
E---0-3-5-7---7-----------------------|
:
# outro3 #A&B
E---------------------|
B---------------------|
G---------------------|
D---------------5-----|
A-----------5-----7---|
E---0-3-5-7---7-------|
:
Tabbed by Jussi Heinonen 17.05.1998.




Ваше мнение



Капча