-------------------------------------------------------------------------------
Reagan Sucks - NOFX
-------------------------------------------------------------------------------
Tabbed by: Maggi
Email: [email protected]

Tuning: EADGBE

Verse

e|---------------------------------------------------------------------------|
B|---------------------------------------------------------------------------|
G|----9-9-9----14-14----12----11-11-11-11-11---------------------------------|
D|----9-9-9----14-14----12----11-11-11-11-11---------------------------------|
A|----7-7-7----12-12----10----9--9--9--9--9----------------------------------|
E|---------------------------------------------------------------------------|

Chorus 3X

e|---------------------------------------------------------------------------|
B|---------------------------------------------------------------------------|
G|----------------7--7--7----------------------------------------------------|
D|----------------7--7--7----7--7--7----9--9--9------------------------------|
A|-----5--5--5----5--5--5----7--7--7----9--9--9------------------------------|
E|-----3--3--3---------------5--5--5----7--7--7------------------------------|

e|---------------------------------------------------------------------------|
B|---------------------------------------------------------------------------|
G|---------------------------------------------------------------------------|
D|-----5-5-5-5-5-5----7-7-7-7-7-7-------2------------------------------------|
A|-----5-5-5-5-5-5----7-7-7-7-7-7-------2------------------------------------|
E|-----3-3-3-3-3-3----5-5-5-5-5-5-------0------------------------------------|




Ваше мнение



Капча