-------------------------------------------------------------------------------
Quart in Session - NOFX
-------------------------------------------------------------------------------
By: [email protected]
Bass intro - for guitar 2x Guitar joins in
e|----------------------------------|----------------------------------------|
B|----------------------------------|----------------------------------------|
G|----------------------------------|-----------------5-5--------------------|
D|----------5-5---------------------|--5-5------------5-5--5-5-5-5-5-5-5-5---|
A|------3-3-----0-0-----3-3-----5-5-|--5-5--5-5--2-2--3-3--5-5-5-5-5-5-5-5---|
E|--3-3-------------0-0-----3-3-----|--3-3--2-2--0-0-------3-3-3-3-3-3-3-3---|
Verse riff - muted play 2x
e|---------------------------------------------------------------------------|
B|---------------------------------------------------------------------------|
G|-----------5-5-5-5-----------------------------5-5-5-5-----------7-7-7-7---|
D|--5-5-5-5--5-5-5-5--5-5-5-5--7-7-7-7--2-2-2-2--5-5-5-5--5-5-5-5--7-7-7-7---|
A|--5-5-5-5--3-3-3-3--5-5-5-5--7-7-7-7--2-2-2-2--3-3-3-3--5-5-5-5--5-5-5-5---|
E|--3-3-3-3-----------3-3-3-3--5-5-5-5--0-0-0-0-----------3-3-3-3------------|
Chorus Lead bit
e|---------------------------------------|--------3-3-3-3--15-15-15-15--------|
B|---------------------------------------|------------------------------------|
G|-----------------5-5-------------------|------------------------------------|
D|--5-5------------5-5--5-5-5-5-5-5-5-5--|------------------------------------|
A|--5-5--5-5--2-2--3-3--5-5-5-5-5-5-5-5--|------------------------------------|
E|--3-3--2-2--0-0-------3-3-3-3-3-3-3-3--|------------------------------------|
Bridge - Play this 2x... ...then
e|-------------------------------------|-------------------------------------|
B|-------------------------------------|-------------------------------------|
G|--2-2-2-2--5-5-5-5-------------------|--8-8-8-8--10-10-10-10---------------|
D|--2-2-2-2--5-5-5-5--5-5-5-5-5-5-5-5--|--8-8-8-8--10-10-10-10---------------|
A|--0-0-0-0--3-3-3-3--5-5-5-5-5-5-5-5--|--6-6-6-6---8--8--8--8---------------|
E|--------------------3-3-3-3-3-3-3-3--|-------------------------------------|
These are the basic chords - listen to the CD to put them in order.
Use your 1st and 4th fingers for the stretch on that F#/G chord in the
chorus riff.
===============================================================================




Ваше мнение



Капча