PUNK GUY - Nofx

Transcribed by: Punker
Email: [email protected]

Verse
------------------------------------------------------------------------------
------------------------------------------------------------------------------
---------------------5-5-5-5--------------------------------------------------
-3-3-3-3---5-5-5-5---5-5-5-5---7-7-7-7----------------------------------------
-3-3-3-3---5-5-5-5---3-3-3-3---7-7-7-7----------------------------------------
-1-1-1-1---3-3-3-3-------------5-5-5-5----------------------------------------

Another kind of verse
------------------------------------------------------------------------------
------------------------------------------------------------------------------
---------------------5-5-5-5-5-5----------------------------------------------
-5-5-5-5---3-3-3-3---5-5-5-5-5-5---5-5-5-5---3-3-3-3---5-5-5-5----------------
-5-5-5-5---3-3-3-3---3-3-3-3-3-3---5-5-5-5---3-3-3-3---5-5-5-5----------------
-3-3-3-3---1-1-1-1-----------------3-3-3-3---1-1-1-1---7-7-7-7----------------

------------------------------------------------------------------------------
------------------------------------------------------------------------------
------------------------------------------------------------------------------
-3-3-3-3---5-5-5-5------------------------------------------------------------
-3-3-3-3---5-5-5-5------------------------------------------------------------
-1-1-1-1---3-3-3-3------------------------------------------------------------
P.M..............

Iґm not so sure how the order is, just figure it out by yourselves




Ваше мнение



Капча