pretty much the whole song is this:
e
B
G-9-9-7-9-7-12-12-12-12----------12-12-9-9-9-9
D-9-9-7-9-7-12-12-12-12-10-10-10-12-12-9-9-9-9
A-7-7-5-7-5-10-10-10-10-10-10-10-10-10-7-7-7-7
E------------------------8--8--8--------

VERSE (WHEN MELVIN SINGS AND YOU CAN BARELY TELL WHAT HE'S SINGING):
e--------------------------------------|--
B--------------------------------------|--
G-9-9-9-7-9---------------------7-7-7-7|-9
D-9-9-9-7-9-10-10-10-10-5-5-5-5-7-7-7-7|-9
A-7-7-7-5-7-10-10-10-10-5-5-5-5-5-5-5-5|-7
E------------8--8--8--8-3-3-3-3--------|--

THERE IS A PAUSE WHEN FAT MIKE SINGS WITH JUST BASS,THEN THE GUITARS PLAY 2 DIFFERENT THINGS, SO I ONLY HAVE WHAT 1 OF THE GUITARS PLAY.
SECOND PART OF VERSE:
e------------------------------------------------|----------------------------------
B------------------------------------------------|----------------------------------
G-14-14-14-14-14-14-14-14-14-14-14-14------------|-9-9-9-9-7-7-7-7-9-5-5-5-5-5-5-5-5
D-14-14-14-14-14-14-14-14-14-14-14-14-10-10-10-10|-9-9-9-9-7-7-7-7-9-5-5-5-5-5-5-5-5
A-12-12-12-12-12-12-12-12-12-12-12-12-10-10-10-10|-7-7-7-7-5-5-5-5-7-3-3-3-3-3-3-3-3
E--------------------------------------8--8--8--8|----------------------------------

PLAY THE INTRO, THEN PLAY MY FAVORITE PART. IT'S ALMOST THE SAME AS THE INTRO BUT SLOWER AND COOLER(WHAT THE HELL):
e-----------------------------------------------------------
B-----------------------------------------------------------
G-9-9-9-9-7-9-7-12-12-12-12-12-12-------------11-9-9-9-9-9-9
D-9-9-9-9-7-9-7-12-12-12-12-12-12-10-10-10-10-11-9-9-9-9-9-9
A-7-7-7-7-5-7-5-10-10-10-10-10-10-10-10-10-10--9-7-7-7-7-7-7
E----------------------------------8--8--8--8---------------

AFTER THAT PLAY BOTH PARTS OF THE VERSE AGAIN, THE SAME WAY I EXPLAINED IT BEFORE, AND THEN THE INTRO TO END IT.




Ваше мнение



Капча