PODS AND GODS - NOFX
Interesting song - very interesting. And great lyrics... Strange effect on
that guitar so I'm not sure if it's right!
A=left guitar B=right guitar A&B=both
# intro #A ! not same scale with B !
E-|----2X-----|-----------------------------------------------|----4X---|-|
B-|-----------|-----------------------------------------------|---------|-|
G-|10101010---|-9-9-9-9-----8-8-8-8-----7-7-7-7-----6-6-6-6---|---------|-|
D-|10101010---|-9-9-9-9-----8-8-8-8-----7-7-7-7-----6-6-6-6---|10101010-|-|
A-|-8-8-8-8---|-7-7-7-7-----6-6-6-6-----5-5-5-5-----4-4-4-4---|10101010-|-|
E-|-----------|-----------------------------------------------|-8-8-8-8-|-|
# intro #B >
E-|13--------|13------------12------------11------------10----------->
B-|----------|------------------------------------------------------->
G-|1011--1110|1011--11-9-----910--10-8-----8-9---9-7-----7-8---8-6--->
D-|----12----|----12------------11------------10-------------9------->
A-|----------|------------------------------------------------------->
E-|----6X----|------------------------------------------------------->
>introB
>---9-----------|-8-----------|-8-------|
>---------------|-------------|---------|
>---6-7---7-5---|-5-6---6-5---|-5-6-----|
>-------8-------|-----7-------|-----7---|
>---------------|-------------|---------|
>---------------|-----3X------|---------|
:
# verse #A #=play 3-4X %=pause
E-------------------------------------------------------------------|
B------------------------------------#---#---#-------#---#---#---#--|
G----------------------------------14--12--10----#-14--12--10--10---|
D------------101010----------10101014--12--10--10--14--12--10--10---|
A---%%%%%%%%%101010-%%%%%%%%%10101012--10---8--10--12--10---8---8---|
E-------------8-8-8-----------8-8-8-------------8-------------------|
# verse #B *=play palm-muted 13X #=play 3-4X
E---------------------------------------------------------------------------|
B------------------------------------#---#---#-------#---#---#---#----------|
G----------------------------------14--12--10----#-14--12--10--10-----------|
D----*-------101010--*-------10101014--12--10--10--14--12--10--10-!START----|
A--10--------10101010--------10101012--10---8--10--12--10---8---8--BRIDGE!--|
E---8---------8-8-8-8---------8-8-8-------------8---------------------------|
:
# bridge #A X4 !I'm not sure - my version has an error here!
E-------------|
B-------------|
G-------------|
D--10101010---|
A--10101010---|
E---8-8-8-8---|
# bridge #B !I'm not sure - my version has an error here!
E-|-8-----------|-8-------|
B-|-------------|---------|
G-|-5-6---6-5---|-5-6-----|
D-|-----7-------|-----7---| > Then play AverseA or BverseB (without
A-|-------------|---------| bridge thing...).
E-|-----4X------|---------|
:
# pre-chorus #A&B *=play 3-4X
E-------------------------------------------------------------------|
B------------*---*-----------*---------------*---*---*---*---*---*--|
G----*-----10--12----*-----10----*---*-----10--12---7---7--10--10---|
D---7-----510--12---7-----510--10---7-----510--12---7---7--10--10---|
A---7-----5-8--10---7-----5-8--10---7-----5-8--10---5---5---8---8---|
E---5-----3---------5-----3-----8---5-----3-------------------------|
# chorus #A&B *=play 3-4X >
E------------------------------------------------------------------------->
B----------------------------*-----*-----------*-------------------------->
G----*-----------------*---10----12------*---10---9--*-----------------*-->
D--10------*-----*----6----10----12----10----10---910------*-----*----6--->
A--10----10-----8-----6-----8----10----10-----8---710----10-----8-----6--->
E---8-----6-----5-----4-----------------8-----------8-----6-----5-----4--->
>chorusA&B
>----------------------|
>----*-----*-----------| > Then play AbridgeAX4 or BbridgeB and
>--10----12----!B------| AverseA or BverseB (without bridge thing...).
>--10----12-----STARTS-|
>---8----10-----BRIDGE!|
>----------------------|
:
# verse2-part2 #A&B *=play 13X #=play 3-4X (The number one son...)
E-------------------------------------------------------------------|
B------------------------------------#---#---#-------#---#---#---#--|
G----*---------------*-------------14--12--10----#-13--12--10--10---|
D--10--------3-3-510--------3-3-514--12--10--10--13--12--10--10---|
A--10--------3-3-510--------3-3-512--10---8--10--11--10---8---8---|
E---8--------1-1-3/8--------1-1-3/------------8-------------------|
:
# pre-chorus #B *=play 3-4X !A plays pre-chorusA&B!
E-------------------------------------------------------------------|
B------------*---*-----------*---------------*---*---*---*---*---*--|
G----*-----10--12----*-----10----*---*-----10--12--17--17--17--17---|
D---7-----510--12---7-----510--10---7-----510--12-------------------|
A---7-----5-8--10---7-----5-8--10---7-----5-8--10--15--15--15--15---|
E---5-----3---------5-----3-----8---5-----3-------------------------|
:
# chorus2 #B *=play 42X !A plays chorusA&B! -----
E------------------------------------------------------->----------------|
B----*------------------------------------------------------!A-and-B------|
G--17--------------------------------------------------------START-BRIDGE-|
D------------------------------------------------------------AND-MOVE-FRET|
A--15--------------------------------------------------------HIGHER-EVERY-|
E------------------------------------------------------------RHYTHM!------|
:
The number one son is flipping the TAB.
Tabbed by Jussi Heinonen 11.12.2000.




Ваше мнение



Капча