-------------------------------------------------------------------------------
Please Stop Fucking My Mom - NOFX
-------------------------------------------------------------------------------

Tabbed by: Maggi
Email: [email protected]

Tuning: EADGBE

Intro

e|---------------------------------------------------------------------------|
B|---------------------------------------------------------------------------|
G|--------------------7-------------------------7----------------------------|
D|---2--2---5--5--5---7--------2--2---5--5--5---7----------------------------|
A|---2--2---5--5--5---5--------2--2---5--5--5---5----------------------------|
E|---0--0---3--3--3------------0--0---3--3--3--------------------------------|

Verse

e|---------------------------------------------------------------------------|
B|---------------------------------------------------------------------------|
G|---------------------------7-7-7-7-7---9-9-9-9-9---------------------------|
D|---2-2-2-2-2---5-5-5-5-5---7-7-7-7-7---9-9-9-9-9---------------------------|
A|---2-2-2-2-2---5-5-5-5-5---5-5-5-5-5---7-7-7-7-7---------------------------|
E|---0-0-0-0-0---3-3-3-3-3---------------------------------------------------|

Chorus

e|---------------------------------------------------------------------------|
B|---------------------------------------------------------------------------|
G|--------------------7-------------------------7----------------------------|
D|---2--2---5--5--5---7--------2--2---5--5--5---7----------------------------|
A|---2--2---5--5--5---5--------2--2---5--5--5---5----------------------------|
E|---0--0---3--3--3------------0--0---3--3--3--------------------------------|


Ваше мнение



Капча