Artist: NOFX
Song: Please Play This Song On the Radio
Album: White Trash, Two Heebs, and a Bean
Tabbist: Chris Hansen, any threats, comments, complements, or if you just want be to die email me at [email protected] (I have a new punk band called Natural Disaster) I love my friends and my mom
Intro Chords
E|---------------------------------------|G
B|--------------1~-----------------------|U
G|--------7~----2~----5~-----------------|I
D|--5~----7~----2~----5~-----------------|T
A|--5~----5~----0~----3~-----------------|A
E|--3~-----------------------------------|R
1st Solo
E|----------------------------------------------|G
B|--------------------8-----------------8-------|U
G|--------------7-9-7---9-7-------7-9-7---9-7-9-|I
D|-----5h7-7-9--------------9-7-9---------------|T
A|-5h7------------------------------------------|A
E|----------------------------------------------|R
E|-------------10----10--------10-12-12-12b-10-7-8-7------|G
B|-----8-10-12----12-----8---8----------------------7-----|U
G|-7-9---------------------9------------------------------|I
D|--------------------------------------------------------|T
A|--------------------------------------------------------|A
E|--------------------------------------------------------|R
Verse
E|--------------------------------------------------------|G
B|-------------------111111111----------------------------|U
G|----------77777777-222222222-55555555-------------------|I
D|-55555555-77777777-222222222-55555555-------------------|T
A|-55555555-55555555-000000000-33333333-------------------|A
E|-33333333-----------------------------------------------|R
We wrote this song its not to short its not to long
It's got backup vocals in just the right places
It's gotta few uws and ahs
And it takes a little pause
E|--------------------------------------------------------|G
B|--------------------------------------------------------|U
G|----------4-5555----------------------------------------|I
D|-55555555-4-5555----------------------------------------|T
A|-55555555-2-3333----------------------------------------|A
E|-33333333-----------------------------------------------|R
"Just before I say the F word..."
Chorus
E|--------------------------------------------------------|G
B|-------------------111111111----------------------------|U
G|----------77777777-222222222-55555555-------------------|I
D|-55555555-77777777-222222222-55555555-------------------|T
A|-55555555-55555555-000000000-33333333-------------------|A
E|-33333333-----------------------------------------------|R
Please play this song on the radio
Verse
E|--------------------------------------------------------|G
B|-------------------111111111----------------------------|U
G|----------77777777-222222222-55555555-------------------|I
D|-55555555-77777777-222222222-55555555-------------------|T
A|-55555555-55555555-000000000-33333333-------------------|A
E|-33333333-----------------------------------------------|R
Almost every line is sung on time
Almost every verse ends in a rhyme
The only problem we had was writing enough words
uw ah
This is 2nd guitar but you could always strum the verse E|--------------------------------------------------------|G
B|--------------------------------------------------------|U
G|--------------------------------------------------------|I
D|--------------------------------------------------------|T
A|--------------------------------------------------------|A
E|--3--5--3----5----7----9--------------------------------|R
But thats ok because the chorus is comin up again now
Chorus
E|--------------------------------------------------------|G
B|-------------------111111111----------------------------|U
G|----------77777777-222222222-55555555-------------------|I
D|-55555555-77777777-222222222-55555555-------------------|T
A|-55555555-55555555-000000000-33333333-------------------|A
E|-33333333-----------------------------------------------|R
Please play this song on the radio
Please play this song on the radio
2nd solo
E|-----------------------------------------------------------|G
B|-------15----15----15--------------------------------------|U
G|-14h16----16----16----16-14/12h14-12-12-------------12h14--|I
D|---------------------------------------14------12h14-------|T
A|-----------------------------------------12h14-------------|A
E|-----------------------------------------------------------|R
E|-----------------------------------------------------------|G
B|-----15----15----------------------------------------------|U
G|-16b----16----14h12----------------------------------------|I
D|-------------------14h12-14-14-12-17b----------------------|T
A|-----------------------------------------------------------|A
E|-----------------------------------------------------------|R
Chorus (first two times just bass)
E|--------------------------------------------------------|G
B|-------------------111111111----------------------------|U
G|----------77777777-222222222-55555555-------------------|I
D|-55555555-77777777-222222222-55555555-------------------|T
A|-55555555-55555555-000000000-33333333-------------------|A
E|-33333333-----------------------------------------------|R
Please play this song on the radio
Please play this song on the radio
Verse
E|--------------------------------------------------------|G
B|-------------------111111111----------------------------|U
G|----------77777777-222222222-55555555-------------------|I
D|-55555555-77777777-222222222-55555555-------------------|T
A|-55555555-55555555-000000000-33333333-------------------|A
E|-33333333-----------------------------------------------|R
Right about this time
Some shithead will be drawin a fat fucking line
Over the title on the back sleeve, what an asshole
So mr. DJ, i hope you already made your segway
E|--------------------------------------------------------|G
B|--------------------------------------------------------|U
G|----------4-5555----------------------------------------|I
D|-55555555-4-5555----------------------------------------|T
A|-55555555-2-3333----------------------------------------|A
E|-33333333-----------------------------------------------|R
"Or the FCC's gonna take a shit right on your head.."
Chorus
E|--------------------------------------------------------|G
B|-------------------111111111----------------------------|U
G|----------77777777-222222222-55555555-------------------|I
D|-55555555-77777777-222222222-55555555-------------------|T
A|-55555555-55555555-000000000-33333333-------------------|A
E|-33333333-----------------------------------------------|R
Can't play this song on the radio
Can't play this song on the radio
PLEASE PLAY THIS SONG ON THE RADIO LYRICS
We wrote this song, it's not too short, not too long
It's got back-up voc's in just the right places
It's got a few oohs and ahhs
It takes a little pause
Just before I sing the f word
Please play this song on the radio
Almost every line is sung on time
Almost every verse ends in a rhyme
The only problem we had was writing enough words
But that's okay, because the chorus is
Coming up again now
Please play this song on the radio
Please play this song on the radio
Right about this time
Some shithead will be drawin a fat fucking line
Over the title on the back sleeve, what an asshole
So mr. DJ, i hope you already made your segway
Or the FCC is gonna take a shit right on your head
Can't play this song on the radio


Ваше мнение



Капча