This is the REAL version of the starting in please play this song on the radio by
NOFX. The other intro's are wrong.
Tabbed by: your one and only alexisonfire fan
Tuning: Standard

INTRO (Guitar 1)
e|------------------------------------|
b|------------------------------------|
g|-12-12-12-12-12-12-12-12-12-12-12-12|
d|-12-12-12-12-12-12-12-12-12-12-12-12|
a|-10-10-10-10-10-10-10-10-10-10-10-10|
e|------------------------------------|

(Guitar 2 joins in intro)
e|-----------------------------------|
b|-----------------------------------|
g|------5---------7---------5---7---5|
d|-1----5----5----7----1----5-5-7-1-5|
a|-1----3----5----5----1----3-5-5-1-3|
e|-0---------3---------0------3---0--|

|h hammer-on
|/ slide up
|p pull-off
|u bend the string UP
|d bend the string DOWN
|~ vibrate

(Guitar Solo #1)
e|-------------------------------------------------
b|-------------------------------------------------
g|--------------------12----------------12---------
d|----------9/12-14h12--1214p12--1212-----1212/14~~
a|-----10h12-------------------14------------------
e|10h12--------------------------------------------
(continuation of solo)
e|----------------------------------|
b|----------15--------15ud12h13p12--|
g|-----1214u--14ud12--------------12|
d|12/14-------------12--------------|
a|----------------------------------|
e|----------------------------------|
We wrote this song its not to short its not too long...
TADAAA!!! there's your beggining.




Ваше мнение



Капча