-------------------------------------------------------------------------------
Parents
-------------------------------------------------------------------------------

By:Sputnick
intro
e|---------------------------------------------------------------------------
B|---------------------------------------------------------------------------
G|-4-4-4-4-4-4-4-4-----------------------------------------------------------
D|-4-4-4-4-4-4-4-4-----4-4-4-4-4-4-4-4---------------------------------------
A|-2-2-2-2-2-2-2-2-2-2-4-4-4-4-4-4-4-4--x2-----------------------------------
E|-----------------0-0-2-2-2-2-2-2-2-2---------------------------------------
verse 1
e|---------------------------------------------------------------------------
B|---------------------------------------------------------------------------
G|---------------4-4-4-4-4-4-4---------------4-4-4-4-4-4-4-------------------
D|-2-2-2-2-2-2-2-4-4-4-4-4-4-4-7-7-7-7-7-7-7-4-4-4-4-4-4-4--x4---------------
A|-2-2-2-2-2-2-2-2-2-2-2-2-2-2-7-7-7-7-7-7-7-2-2-2-2-2-2-2-------------------
E|-0-0-0-0-0-0-0---------------5-5-5-5-5-5-5---------------------------------
chourus
e|--------------------------------------------------------------------------
B|--------------------------------------------------------------------------
G|-9-9-9-9-9-9-----7-7-7-7-7-7----------------------------------------------
D|-9-9-9-9-9-9-6-6-7-7-7-7-7-7-9-9-9-9-9-9-9-9-7-7-7-7-7-7-7-7--------------
A|-7-7-7-7-7-7-6-6-5-5-5-5-5-5-9-9-9-9-9-9-9-9-7-7-7-7-7-7-7-7--------------
E|-------------4-4-------------7-7-7-7-7-7-7-7-5-5-5-5-5-5-5-5--------------

e|---------------------------------------------------------------------------
B|---------------------------------------------------------------------------
G|---------------------------------------------------------------------------
D|-9-9-9-9-9-9-9-7-7-7-7-7-7-7-7-7-------------------------------------------
A|-9-9-9-9-9-9-9-7-7-7-7-7-7-7-7-7-------------------------------------------
E|-7-7-7-7-7-7-7-5-5-5-5-5-5-5-5-5-------------------------------------------
Then play verse again, then play
chourus and then play
e|---------------------------------------------------------------------------
B|---------------------------------------------------------------------------
G|-11-11-11-11-11-11-----9-9-9-9-9-9-----------------------------------------
D|-11-11-11-11-11-11-8-8-9-9-9-9-9-9-11-11-11-11-11-11-11-11-9-9-9-9-9-9-9-9-
A|-9--9--9--9--9--9--8-8-7-7-7-7-7-7-11-11-11-11-11-11-11-11-9-9-9-9-9-9-9-9-
E|-------------------6-6-------------9--9--9--9--9--9--9--9--7-7-7-7-7-7-7-7-

e|-------------------------------------------
B|-------------------------------------------
G|-------------------------------------------
D|-11-11-11-11-11-11-11-11-------------------
A|-11-11-11-11-11-11-11-11-9-9-9-9-9-9-9-9---
E|-9--9--9--9--9--9--9--9--7-7-7-7-7-7-7-7---
bridge
e|-------------------------------------------
B|-------------------------------------------
G|-------------------------------------------
D|-------------------------------------------
A|-9-7-4-7-9-7-4-7-7-7-7---------------------
E|-7-5-6-5-7-5-6-5-5-5-5---------------------
then play chourus

order writen by Tom Bushby and Joel Murry
intro
veres
chorus
vers
chorus
bridge
chorus




Ваше мнение



Капча