NO PROBLEMS by NOFX. Album: Maximum Rocknroll (1988) 1/2
Okay, let's do it!
A=left Melvin B=right Melvin A&B=both Melvins
:
# intro #A&B
E-------|
B-------|
G-------|
D---2---|
A---2---|
E---0---|
:
# intro2 #A&B ()=GuitarA plays 3X, guitarB 2X
E---(-----------------------)----------------------|
B---(-----------------------)----------------------|
G---(------------5-5-5-7-7-7)------------5-5-5-7---|
D---(2-2-2-5-5-5-5-5-5-7-7-7)2-2-2-5-5-5-5-5-5-7---|
A---(2-2-2-5-5-5-3-3-3-5-5-5)2-2-2-5-5-5-3-3-3-5---|
E---(0-0-0-3-3-3------------)0-0-0-3-3-3-----------|
:
# verse #A&B X3
E-----------------------------------------------------|
B-----------------------------------------------------|
G---------------------------7-7-7-7-----9-9-9-9-9-9---|
D---2-2-2-2-4-4-5-5-5-5-9-9-7-7-7-7-7-7-9-9-9-9-9-9---|
A---2-2-2-2-4-4-5-5-5-5-9-9-5-5-5-5-7-7-7-7-7-7-7-7---|
E---0-0-0-0-2-2-3-3-3-3-7-7---------5-5---------------|
:
# end-verse #A&B
E-----------------------------------------------------------|
B-----------------------------------------------------------|
G---9-9-9-9-11-11-12-12-12-12-----7-7-7-7-----9-9-9-9-9-9---|
D---9-9-9-9-11-11-12-12-12-12-9-9-7-7-7-7-7-7-9-9-9-9-9-9---|
A---7-7-7-7--9--9-10-10-10-10-9-9-5-5-5-5-7-7-7-7-7-7-7-7---|
E-----------------------------7-7---------5-5---------------|
:
# chorus #A b=bend up
E----------------------------------------|
B----------------------------------------|
G--11-11-11-11--7b9--------11-11-11-11---|
D--11-11-11-11-------------11-11-11-11---|
A---9--9--9--9--------------9--9--9--9---|
E----------------------------------------|
# chorus #B
E----------------------------------------|
B----------------------------------------|
G--11-11-11-11-------------11-11-11-11---|
D--11-11-11-11--2----------11-11-11-11---|
A---9--9--9--9--2-----------9--9--9--9---|
E---------------0------------------------|
:
Then play intro2A&B.
:
# solo #A
E---------------------------------------------------------|
B---------------------------------------------------------|
G---9-------11-12--------11-7-----------9-----7-9-11-12---|
D---------------------------------------------------------|
A---------------------------------------------------------|
E---------------------------------------------------------|
# solo-background #B *=play 10X
E---------------------------------------------------------|
B----------------------------*----------------------------|
G----*-----------*----------7------------*----------------|
D---2-------4-4-5-------9-9-7-------7-7-2-----------------|
A---2-------4-4-5-------9-9-5-------7-7-2-----------------|
E---0-------2-2-3-------7-7---------5-5-0-----------------|
Then play solo-backgroundA&B >>>>>>>>>>>>>to next page...
NO PROBLEMS 2/2
:
# chorus2 #A b=bend up
E---------------------------------------------|
B---------------------------------------------|
G--11-11-11-11--7b9--------11-11-11-11--7b9---|
D--11-11-11-11-------------11-11-11-11--------|
A---9--9--9--9--------------9--9--9--9--------|
E---------------------------------------------|
# chorus2 #B
E---------------------------------------------|
B---------------------------------------------|
G--11-11-11-11-------------11-11-11-11--------|
D--11-11-11-11--2----------11-11-11-11--2-----|
A---9--9--9--9--2-----------9--9--9--9--2-----|
E---------------0-----------------------0-----|
:
No problem!
Tabbed by Jussi Heinonen 06.05.1998.




Ваше мнение



Капча