intro
e-------------------------------------------------
b-------------------------------------------------
g--------7-7--9-9---------------------------------
d---7-7--7-7--9-9--5-5---------------------------- X2
a---7-7--5-5--7-7--5-5----------------------------
e---5-5------------3-3----------------------------
verse
e-------------------------------------------------
b-------------------------------------------------
g-------------------------------------------------
d------------------------------------------------- X2
a--------5555--7777-------------------------------
e--5555--------------5555-5555--------------------
pm................................................
chorus,sort of
e-------------------------------------------------
b-------------------------------------------------
g-7-----------------------------------------------
d-7-x8---7------9-----7----5----------------------
a-5------7-x8---9-x4--7-x4-5-x20------------------
e--------5------7-----5----3----------------------
when fat mike sing your not special just play the intro 2 times and end on A5.




Ваше мнение



Капча