Group: NOFX
Song: my vagina
Album: pump up the valuum, i think so
Tab by alan stewart
Intro Guitar:
e|------------------------------------------------------------------------------
B|------------------------------------------------------------------------------
G|--------6--7-7-7--6-------------------6--7-7-7--6-------------------6--7-7-7--
D|-2-2-2--6--7-7-7--6--7-7-7--6--2-2-2--6--7-7-7--6--7-7-7--6--2-2-2--6--7-7-7--
A|-2-2-2--4--5-5-5--4--7-7-7--6--2-2-2--4--5-5-5--4--7-7-7--6--2-2-2--4--5-5-5--
E|-0-0-0---------------5-5-5--4--0-0-0---------------5-5-5--4--0-0-0------------
e|-----------------------------------------|
B|-----------------------------------------|
G|-6-------------------6--7-7-7--6---------|
D|-6--7-7-7--6--2-2-2--6--7-7-7--6--7-7-7--|
A|-4--7-7-7--6--2-2-2--4--5-5-5--4--7-7-7--|
E|----5-5-5--4--0-0-0---------------5-5-5--|
Verse:
e|---------------------------------------------------------------|
B|---------------------------------------------------------------|
G|-----------------------6-7-7-7-6---------------7-7-7-9-9-9-----|
D|-7-7-7-6-4-4-4-6-2-2-2-6-7-7-7-6-7-7-7-6-4-4-4-7-7-7-9-9-9-----|
A|-7-7-7-6-4-4-4-6-2-2-2-4-5-5-5-4-7-7-7-6-4-4-4-5-5-5-7-7-7-----|
E|-5-5-5-4-2-2-2-4-0-0-0-----------5-5-5-4-2-2-2-----------------|
e|----------------------------------------|
B|----------------------------------------|
G|-----------------------6-7-7-7-6--------| x 2
D|-7-7-7-6-4-4-4-6-2-2-2-6-7-7-7-6-7-7-7--|
A|-7-7-7-6-4-4-4-6-2-2-2-4-5-5-5-4-7-7-7--|
E|-5-5-5-4-2-2-2-4-0-0-0-----------5-5-5--|
e|-------------------------------|
B|-------------------------------|
G|---------------7-7-7-9-9-9-----|
D|-7-7-7-6-4-4-4-7-7-7-9-9-9-----|
A|-7-7-7-6-4-4-4-5-5-5-7-7-7-----|
E|-5-5-5-4-2-2-2-----------------|
Bridge
e|------------------------------------------------|
B|------------------------------------------------|
G|------------------------------------------------|x 2
D|-7---7-7-7-7-7-7---2-2-2-2-2-2--7-7-7--4-4-4----|
A|-7---7-7-7-7-7-7---2-2-2-2-2-2--7-7-7--4-4-4----|
E|-5---5-5-5-5-5-5---0-0-0-0-0-0--5-5-5--2-2-2----|

e|--------------------------------|
B|--------------------------------|
G|--------------------------------|
D|-7---7-7-7-7-7-7---2-2-2-2-2-2--|
A|-7---7-7-7-7-7-7---2-2-2-2-2-2--|
E|-5---5-5-5-5-5-5---0-0-0-0-0-0--|




Ваше мнение



Капча