-------------------------------------------------------------------------------
Murder The Government - NOFX
-------------------------------------------------------------------------------

Tabbed by: Maggi
Email: [email protected]

Tuning: EADGBE

Intro

e|-------7-------4-------0---------------------2-----------------------------|
B|-------7-------4-------0------------------2--------------------------------|
G|-------8-------5-------1---------------3-----------------------------------|
D|-------9-------6-------2------------4--------------------------------------|
A|-------9-------6-------2---------4-----------------------------------------|
E|-------7-------4-------0------2--------------------------------------------|

Verse

e|---------------------------------------------------------------------------|
B|---------------------------------------------------------------------------|
G|----4-4-4-4-4--------------------------------------------------------------|
D|----4-4-4-4-4---6-6-6-6-6---2-2-2-2-2---4-4-4-4-4--------------------------|
A|----2-2-2-2-2---6-6-6-6-6---2-2-2-2-2---4-4-4-4-4--------------------------|
E|----------------4-4-4-4-4---0-0-0-0-0---2-2-2-2-2--------------------------|

End

e|--------------------7------------------------------------------------------|
B|-----------------7---------------------------------------------------------|
G|--------------8------------------------------------------------------------|
D|-----------9---------------------------------------------------------------|
A|--------9------------------------------------------------------------------|
E|-----7---------------------------------------------------------------------|


Ваше мнение



Капча