e-------------------------------------------
B-------------------------------------------
G-5------7-5---5-7---10--10-5---5-7---7-10--
D-5------7-5---5-7---10--10-5---5-7---7-10--
A-3------5-3---3-5----8---8-3---3-5---5--8--
E-------------------------------------------
Bass Does This
e--------------------------------------------------------------------------
B--------------------------------------------------------------------------
G--------------------------------------------------------------------------
D--------------------------------------------------------------------------
A-3-3-3-3-3-3-3-3-----------------5-5-5-5-5-5-5-5--8--8--8--8--8--8--8--8--
E-----------------1-1-1-1-1-1-1-1------------------------------------------
Verse
e-|---------------------------------|
B-|---------------------------------|
G-|-5-5-5-5-------------------------|
D-|-5-5-5-5-5-5-5-5-3-3-3-3-5-5-5-5-|
A-|-3-3-3-3-5-5-5-5-3-3-3-3-5-5-5-5-|
E-|---------3-3-3-3-1-1-1-1-3-3-3-3-|
e-|---------------------------|
B-|-----8-------------8-------|
G-|-5/9---9-8-7-5-5/9---9-8-7-|
D-|---------------------------|
A-|---------------------------|
E-|---------------------------|
e-|------------------------------------------------------------------
B-|------------------------------------------------------------------
G-|-5-5-x-5-5-x-5-5-x-5-10-9-7-7-7-10-9-7-7-7-10-9-5-5-5-10-9-5-5-5--
D-|-5-5-x-5-5-x-5-5-x-5-10-9-7-7-7-10-9-7-7-7-10-9-5-5-5-10-9-5-5-5--
A-|-3-3-x-3-3-x-3-3-x-3--8-7-5-5-5--8-7-5-5-5--8-7-3-3-3--8-7-3-3-3--
E-|------------------------------------------------------------------
e-|-------------------------------------|
B-|-------------------------------------|
G-|-10-10-10-10-5-5-7-7-10-10-10-10--9--|
D-|-10-10-10-10-5-5-7-7-10-10-10-10--9--|
A-|--8--8--8--8-3-3-5-5--8--8--8--8--7--|
E-|-------------------------------------|
Verse
e-|-------------------------------------------------------------------------
B-|-------------------------------------------------------------------------
G-|-5-5-5-5-5-5---------------5-5-5-5-5-5-9-7-5-5-5-5-5-5-5-----------------
D-|-5-5-5-5-5-5-3-3-3-3-3-3-3-5-5-5-5-5-5-9-7-5-5-5-5-5-5-5-3-3-3-3-3-3-3-3-
A-|-3-3-3-3-3-3-3-3-3-3-3-3-3-3-3-3-3-3-3-7-5-3-3-3-3-3-3-3-3-3-3-3-3-3-3-3-
E-|-------------1-1-1-1-1-1-1-------------------------------1-1-1-1-1-1-1-1-
e-|-------------------|
B-|-------------------|
G-|-5-5-5-5-5-5-9-7-5-|
D-|-5-5-5-5-5-5-9-7-5-|
A-|-3-3-3-3-3-3-7-5-3-|
E-|-------------------|
e-|------------------------------|
B-|-----8------------------------|
G-|-5/9---9-8-7-5-----5-7-10-9-7-|
D-|---------------5^7------------|
A-|------------------------------|
E-|------------------------------|
Chorus
e-|-----------------------------------------------------------------
B-|-----------------------------------------------------------------
G-|-5-5-5-5-5-5-5-5-------------------------------------------------
D-|-5-5-5-5-5-5-5-5-5-5-5-5-5-5-5-5-3-3-3-3-3-3-3-3-5-5-5-5-5-5-5-5-x2
A-|-3-3-3-3-3-3-3-3-5-5-5-5-5-5-5-5-3-3-3-3-3-3-3-3-5-5-5-5-5-5-5-5-
E-|-----------------3-3-3-3-3-3-3-3-1-1-1-1-1-1-1-1-3-3-3-3-3-3-3-3-
e-|--------------------------------------------------------------|
B-|--------------------------------------------------------------|
G-|-5-5-x------------------------5-5-x---------------------------|
D-|-5-5-x-5-5-x-3-3-x-3-3-x-3-3--5-5-x-5-5-x-3-3-x-3-3-x-3-3--5--|
A-|-3-3-x-5-5-x-3-3-x-3-3-x-3-3--3-3-x-5-5-x-3-3-x-3-3-x-3-3--5--|
E-|-------3-3-x-1-1-x-1-1-x-1-1--------3-3-x-1-1-x-1-1-x-1-1--3--|
Inturlude DO DO DO!!!
e-|--------------------------------------------------------------------------|
B-|--------------------------------------------------------------------------|
G-|-5-5-5-5-5-5-5-5-----------------7-7-7-7-7-7-7-7-10-10-10-10-10-10-10-10--|
D-|-5-5-5-5-5-5-5-5-3-3-3-3-3-3-3-3-7-7-7-7-7-7-7-7-10-10-10-10-10-10-10-10--|
A-|-3-3-3-3-3-3-3-3-3-3-3-3-3-3-3-3-5-5-5-5-5-5-5-5--8--8--8--8--8--8--8--8--|
E-|-----------------1-1-1-1-1-1-1-1------------------------------------------|
e-|---------------------------------|
B-|---------------------------------|
G-|-5-5-4-4-2-2---------------------|
D-|-5-5-4-4-2-2-5-5-3-3-3-3-5-5-5-5-|
A-|-3-3-2-2-0-0-5-5-3-3-3-3-5-5-5-5-|
E-|-------------3-3-1-1-1-1-3-3-3-3-|
e-|---------------------------------------|
B-|-----8---------------------------------|
G-|-5/9---9-8-7-5-------5-5-5-7-7-10-10-9-|
D-|---------------7-5^7---5-5-7-7-10-10-9-|
A-|-----------------------3-3-5-5--8--8-7-|
E-|---------------------------------------|
Chorus
e-|-----------------------------------------------------------------|
B-|-----------------------------------------------------------------|
G-|-5-5-5-5-5-5-5-5-------------------------------------------------|
D-|-5-5-5-5-5-5-5-5-5-5-5-5-5-5-5-5-3-3-3-3-3-3-3-3-5-5-5-5-5-5-5-5-|
A-|-3-3-3-3-3-3-3-3-5-5-5-5-5-5-5-5-3-3-3-3-3-3-3-3-5-5-5-5-5-5-5-5-|
E-|-----------------3-3-3-3-3-3-3-3-1-1-1-1-1-1-1-1-3-3-3-3-3-3-3-3-|
e-|-----------------------------------------------|
B-|-----------------------------------------------|
G-|-5-5-x------------------------5-5-x------------|
D-|-5-5-x-5-5-x-3-3-x-3-3-x-3-3--5-5-x-5-5-x-3----|
A-|-3-3-x-5-5-x-3-3-x-3-3-x-3-3--3-3-x-5-5-x-3----|
E-|-------3-3-x-1-1-x-1-1-x-1-1--------3-3-x-1/14-|




Ваше мнение



Капча