NOFX-Monosylabic Girl
ALBUM: So Long... And Thanks For All The Shoes

By:Stash Fortier([email protected])

INTRO
GUITAR 1 GUITAR 2
e|--------------------|-----------------------------------------------|
B|--------------------|-----------------------------------------------|
G|----12-10-12--------|-------7---------------------------------------|
D|-10-12-10-12--X6----|---5^7----3^5----------------------------------|
A|-10-10-8--10--------|--------------3--------------------------------|
E|-8------------------|-----------------------------------------------|

VERSE
e|--------------------------------------------------------------------|
B|--------------------------------------------------------------------|
G|----12-10-12-----12-10-12-------------------------------------------|
D|-10-12-10-12--10-12-10-12---x2--------------------------------------|
A|-10-10-8--10--10-10-8--10-------------------------------------------|
E|-8------------8-----------------------------------------------------|
PM.........

CHORUS
e|--------------------------------------------------------------------|
B|--------------------------------------------------------------------|
G|-5---5---5---5--12-10----10-------10-12-----------------------------|
D|-5---5---5---5--12-10-10-10----10-10-12-----------------------------|
A|-3---3---3---3--10-8--10-8-----10-8--10-----------------------------|
E|----------------------8--------8------------------------------------|

BRIDGE
GUITAR 1 GUITAR 2
e|--------------------|-----------------------------------------------|
B|--------------------|-----------------------------------------------|
G|----12-10-12--------|-------7---------------------------------------|
D|-10-12-10-12--------|---5^7----3^5----------------------------------|
A|-10-10-8--10--------|--------------3--------------------------------|
E|-8------------------|-----------------------------------------------|

REPEAT VERSE
REPEAT CHORUS

END
e|--------------------------------------------------------------------|
B|--------------------------------------------------------------------|
G|-5-5-5-5------------------------------------------------------------|
D|-5-5-5-5------------------------------------------------------------|
A|-3-3-3-3------------------------------------------------------------|
E|--------------------------------------------------------------------|

Lyrics

I take her to the aquarium, she says shark
I take her to the planetarium, she says dark
I take her to the seaside
Where she likes to spin and twirl
She says sure and cool and yeah
She's my monosylabic girl

I take her to the university, she says huh
I take her to our anniversary, she says one
I take her to the jewellery store
I say diamonds, she says pearl
Oh everyone knows i'm in love
With a monosylabic girl

[email protected] for comments/questions




Ваше мнение



Капча