MOM RULES by NOFX. Album: Maximum Rocknroll (1988?)
Nice song, even when the solo is missing. Mystic Record's sound is kinda
messy - too messy to tab tiny hammer-ons and pull-offs.
: !pick-slide
# intro # (=bend up # verse # X4 *=play 10X #=play 6X before start!
E------------------------| E---------------------------------------------|
B-----------(------------| B----*---------*---------#-----------------*--|
G-----------9--7---------| G---9------12-9------12-7-----5-5-5-4-5-7-9---|
D---2------------9-7-----| D---9------12-9------12-7-----5-5-5-4-5-7-9---|
A---2----------------7---| A---7------10-7------10-5-----3-3-3-2-3-5-7---|
E---0--------------------| E---------------------------------------------|
:
# bridge #
E------------------------------------->
B------------------------------------->
G------------------------------------->
D---2---5-4-2---5-4-2---5-4-2---5-4--->
A---2---5-4-2---5-4-2---5-4-2---5-4--->
E---0---3-2-0---3-2-0---3-2-0---3-2--->
>bridge2
>-----------------------------------------------------------------------|
>-----------------------------------------------------------------------|
>-----------------------------------------------------------------------|
>-----------------------------------2--4--5--4-5-4--7--5--4--7--5-4-2---|
>-------------------------------------------------------------------2---|
>---0--2--3--2-3-2--5--3--2--5--3-2---------------------------------0---|
:
Then play verse X1 (!without last 10 chords!).
Right away to next song!
Tabbed by Jussi Heinonen 26.04.1998.




Ваше мнение



Капча