Intro:
Guitar 1, Guitar 2 is quiet
e|--7-7-x-7-7-x-7-7-x-7-7-x-7-7-x-7-7-x-7-7-x-7-7---|
B|--8-8-x-8-8-x-8-8-x-8-8-x-8-8-x-8-8-x-8-8-x-8-8---|
G|--9-9-x-9-9-x-9-9-x-9-9-x-9-9-x-9-9-x-9-9-x-9-9---|
D|--9-9-x-9-9-x-9-9-x-9-9-x-9-9-x-9-9-x-9-9-x-9-9---|
A|--7-7-x-7-7-x-7-7-x-7-7-x-7-7-x-7-7-x-7-7-x-7-7---|
E|--------------------------------------------------|
Verse (There's a place some of us choosed to live...)
Guitar 1
e|---------------------------------------------->
B|--8-8-8-8--8-8-8-8-10-10-10-10--10-10-10-10--->
G|--7-7-7-7--7-7-7-7--9--9--9--9---9--9--9--9--->
D|--5-5-5-5--5-5-5-5--7--7--7--7---7--7--7--7--->
A|---------------------------------------------->
E|---------------------------------------------->
pm...........................................
Guitar 2
e|---------------------------------------------->
B|---------------------------------------------->
G|--4--------------4--5---------------------5--->
D|---------------------------------------------->
A|---------------------------------------------->
E|---------------------------------------------->
Guitar 1
e|----------------------------------------------------------------->
B|--3-3-3-3--3-3-3-3--8-8-8-8--8-8-8-8--12-12-12-12--12-12-12-12--->
G|--2-2-2-2--2-2-2-2--7-7-7-7--7-7-7-7--12-12-12-12--12-12-12-12--->
D|--0-0-0-0--0-0-0-0--5-5-5-5--5-5-5-5---9--9--9--9---9--9--9--9--->
A|----------------------------------------------------------------->
E|----------------------------------------------------------------->
pm..............................................................
Guitar 2
|you can play this here, they don't but
it sounds way better
e|----------------------------------------------------------------->
B|----------------------------------------------------------------->
G|---------------------4-------------4---------(7)----------------->
D|--7---------------7---------------------------------------------->
A|----------------------------------------------------------------->
E|----------------------------------------------------------------->
Guitar 1
e|-----------------------------------------------------------------|
B|-10-10-10-10--10-10-10-10--5-8-8-8--8-8-8-8--3-3-3-3--3-3-3-3----|
G|--9--9--9--9---9--9--9--9--4-7-7-7--7-7-7-7--2-2-2-2--2-2-2-2----|
D|--7--7--7--7---7--7--7--7--2-5-5-5--5-5-5-5--0-0-0-0--0-0-0-0----|
A|-----------------------------------------------------------------|
E|-----------------------------------------------------------------|
pm...............................................................
Guitar 2
e|-----------------------------------------------------------------|
B|-----------------------------------------------------------------|
G|--2------------------------0--------------0--2-------------------|
D|-----------------------------------------------------------------|
A|-----------------------------------------------------------------|
E|-----------------------------------------------------------------|
Repeat Verse but replace last chord with the chord before that
(means play G5 instead of D5)
Chorus:
Guitar 1
e|---------------------------------------------------------------------------|
B|---------------------------------------------------------------------------|
G|-----------5-5-5-5-----------------------------5-5-5-5---------------------|
D|--2-2-2-2--5-5-5-5--5-5-5-5-----------2-2-2-2--5-5-5-5--5-5-5-5------------|
A|--2-2-2-2--3-3-3-3--5-5-5-5-----------2-2-2-2--3-3-3-3--5-5-5-5------------|
E|--0-0-0-0-----------3-3-3-3--8-8-8-8--0-0-0-0-----------3-3-3-3--8-8-8-8---|
Guitar 2
e|---------------------------------------------------------------------------|
B|---------------------------------------------------------------------------|
G|--9-9-9-9--5-5-5-5--------------------9-9-9-9--5-5-5-5---------------------|
D|--9-9-9-9--5-5-5-5--5-5-5-5-----------9-9-9-9--5-5-5-5--5-5-5-5------------|
A|--7-7-7-7--3-3-3-3--5-5-5-5--6-6-6-6--7-7-7-7--3-3-3-3--5-5-5-5--6-6-6-6---|
E|--------------------3-3-3-3-----------------------------3-3-3-3------------|
Pre-Verse:
Guitar 1&2
e|---------------------------------------------------------|
B|---------------------------------------------------------|
G|--5-5-5-5-----------7-7-7-7-----------5-5-5-5--7-7-7-7---|
D|--5-5-5-5--5-5-5-5--7-7-7-7--2-2-2-2--5-5-5-5--7-7-7-7---|
A|--3-3-3-3--5-5-5-5--5-5-5-5--2-2-2-2--3-3-3-3--5-5-5-5---|
E|-----------3-3-3-3-----------0-0-0-0---------------------|
pm.....
Then play Intro, Verse 2x (and last time again G5 instead of D5),
then play Chorus
Pre-Verse with solo:
Guitar 1
C5 G5 D5 E5 C5 D5
e|--------------------------12h15v-------12b13rb12-------------------------|
B|---------12b13rb12--10---------------------------------------------------|
G|---------12b13rb12-----12-----------------------12v------------7-7-7-7---|
D|------------------------------------------------------9b10rb9--7-7-7-7---|
A|---------------------------------------------------------------5-5-5-5---|
E|-------------------------------------------------------------------------|
Guitar 2 (same as in Pre-Verse wrote the notes of it on top if Guitar 1 Tab)
Outro:
Guitar 1 (Guitar 2 is quiet)
e|--3----5----5----3----7----5----3----5----3----|
B|--3----5----7----3----7----5----5----7----3----|
G|--4----5----7----4----7----5----5----7----4----|
D|--5----7----7----5----7----7----5----7----5----|
A|--5----7----5----5----9----7----3----5----5----|
E|--3----5---------3----7----5--------------3----|




Ваше мнение



Капча