Malachi crunch by NOFX
this is just the intro and verse but I decided to post it anyway
e-|-------------------------------------------------
B-|-------------------------------------------------
G-|-------------------------------------------------
D-|-------------------------------------------------
A-|-4-4-7-4-4-6-4-4-7-4-6-4-4-4-7-4-4-6-4-4-7-4-6-4-
E-|-------------------------------------------------
e-|-------------------------------------------
B-|-------------------------------------------
G-|-6----6-8-9--6-----6-8-9-6-8-9-6-8-9-6-8-9-
D-|-6----6-8-9--6-----6-8-9-6-8-9-6-8-9-6-8-9-
A-|-4----4-6-7--4-----4-6-7-4-6-7-4-5-7-4-6-7-
E-|-------------------------------------------
e-|---------------------------------------------------------
B-|---------------------------------------------------------
G-|-2-2-2-2-2-2-2-2-4-4-4-4-4-4-4-4-6-8-9-6-8-9-6-8-9-6-8-9-
D-|-2-2-2-2-2-2-2-2-4-4-4-4-4-4-4-4-6-8-9-6-8-9-6-8-9-6-8-9-
A-|-0-0-0-0-0-0-0-0-2-2-2-2-2-2-2-2-4-6-7-4-6-7-4-6-7-4-6-7-
E-|---------------------------------------------------------
thats all I've figured out so far :(
transcribed by rambozo [email protected]




Ваше мнение



Капча