-------------------------------------------------------------------------------
LOUISE - NOFX
-------------------------------------------------------------------------------
Fat Mike = pervert.
:
# verse # X2 *=play 3X #=play 4X palm-muted
G----*---*--7---9----*--7---5----*---*---*--7---9----*---*---#---#-->
D---2---5---7---9---5---7---5---5---2---5---7---9---5---7---2---2--->
A---2---5---5---7---5---5---3---5---2---5---5---7---5---7---2---2--->
E---0---3-----------3-----------3---0---3-----------3---5---0---0--->
>verse
>-------------------------------------------------------------------|
>--------*---*---*-------*-------*---*---*---*-------*---*----------|
>----*--5---7---4----*--5----*--7---5---5---7----*--5---5---7-------|
>---2---5---7---4---2---5---5---7---5---5---7---5---5---5---7-------|
>---2---3---5---2---2---3---5---5---3---3---5---5---3---3---5---
A--------------------------------14131210--101210121414--------------------->
E----------------------------------------12m-------------------------------->
>solo
>-----------------------------------------|
>-----12---12---12---12-------------------|
>14b16--14k--14k--14k--14b16--14r---------|
>--------------------------------141214---|
>-----------------------------------------|
>-----------------------------------------|
:
# bridge # *=play 8X --------*---*---*-------*-------*---*---*---*-------*-------------->
>----*--5---7---4----*--5----*--7---5---5---7----*--5----*--7------->
>---2---5---7---4---2---5---5---7---5---5---7---5---5---5---7------->
>---2---3---5---2---2---3---5---5---3---3---5---5---3---5---5------->
>---0---------------0-------3-------------------3-------3----------->
>verse3
>-----------------------|
>-----------------------|
>-----------------------|
>---8-------3-------5---|
>---6-------3-------5---|
>---6-------1-------3---|




Ваше мнение



Капча