From: [email protected]
Date: Fri, 12 Jan 1996 20:33:21 -0500
linolium.tab NOFX
I figured it was time to give something back in return for the hundreds of
songs I downloaded from the archive. I tabbed "Linolium" by NoFX, off the
punk in drublic cd
It should follow almost perfectly. I just wrote down the main riffs, you'lll
have to follow the tempo while listening to it, I didn't feel like writing
out every time the chord was strummed. Theres also another guitar that goes
over the chords playing the same root note, but on a higher octive, but thats
easy enough to figure out. Any questions e-mail at GREENSPOT on aol. Keep
jammin'
e---7----------4---4---2---0---2---------------------
b---7----------4---4---2---0---2---------------------
g---9------1---5---6---4---2---4---------------------
d---9------2---6---6---4---2---4---------------------
a---7------2---6---4---2---0---2---------------------
e----------0---4--------------------------------
7th >>>
e--------2---4---5------------------------------------
b--------2---4---5------------------------------------
g----1---4---6---6-------------------------------------
d----2---4---6---7------------------------------------
a----2---2---4---7-------------------------------------
e----0-----------5-----------------------------------
>
Those are the only different parts. heres the order
7th riff a 7th riff a riff a riff b riff a
riff b {slowly (ska like) riff b} riff b riff b riff b
riff a 7th

Possesions never meant anything to me
I'm not crazy
Welll thats not true I got a band
and a guitar
And ?????? pieces on my floor
thats right I gotta flaw
so what so what so what
I got-
pockets full of
cleanux and linnen holes
where eve-rything is what it
should be jus seems to fall down my leg
an onto the floor
my closest friend li-no-li-um
li-nol-i-ummmmmm
supports my hand
give me something to believe
Thats me
up on the beachside, up on the sand
metal meter in my hand
sportin' a pocket full of change
Thats me playin violin under my chin
playin with a grin
singin jim-berin??
thats me, im the bad, I'm the boss
thats me inside your head
thats me inside your headddddddddd
thats me inside your head.
any corrections please mail me




Ваше мнение



Капча