Artist: NOFX
Song title: LINOLEUM
Album : Punk in drublic
Year : 1994
Intro Guitar#1 X8 *=palm-mute
E-----***---***-------|
B---------------------|
G---9-999-9-999-9-9---|
D---9-999-9-999-9-9---|
A---7-777-7-777-7-7---|
E---------------------|
Intro Guitar#2 X4 Comes along after 1st intro is played 4x
E---***************---|
B---------------------|
G---------------------| pick-slide at the end
D---2-2-2-2-2-2-2-2---|
A---2-2-2-2-2-2-2-2---|
E---0-0-0-0-0-0-0-0---|

# riff1 #1 play every note X6
E-------------------------------------------------|
B-------------------------------------------------|
G-------------------------------------------------|
D---6-----6-----6-----6----11-----9-----7-----9---|
A---7-----7-----6-----6----11-----9-----7-----9---|
E---------------4-----4-----9-----7-----5-----7---|
# riff2 #2 play every note X6
E-------------------------------------------------|
B-------------------------------------------------|
G-------------------------------------------------|
D---6-----6---------------------------------------|
A---------------3-----3-----7-----7-----7-----6---|
E-------------------------------------------------|
Then play intro1X2 (Guitar2 is quiet)
Verse Guitars#1&2 X2 play every note X6
E-------------------------------------------------|
B-------------------------------------------------|
G-------------------------------------------------|
D---6-----6-----6-----6----11-----9-----7-----9---|
A---7-----7-----6-----6----11-----9-----7-----9---|
E---------------4-----4-----9-----7-----5-----7---|
:
Verse2 Guitars #1&2 play every note X12
E-------------------------------------------------|
B-------------------------------------------------|
G-------------------------------------------------|
D---6----------------------11-----------7---------|
A---7-----------6----------11-----------7---------|
E---------------7-----------9-----------5---------|
Then play verse1, guitars 1&2 x1
Verse2, guitars 1&2 x5 (
second time partly palm-muted and guitarB
is quiet) and riff1A or riff1B.
Outro #1 *=palm-mute
E-----***---***--------***---***--------***---***---------|
B---------------------------------------------------------|
G---9-999-9-999-9-9--9-999-9-999-9-9--9-999-9-999-9-9-9--|
D---9-999-9-999-9-9--9-999-9-999-9-9--9-999-9-999-9-9-9--|
A---7-777-7-777-7-7--7-777-7-777-7-7--7-777-7-777-7-7-7--|
E---------------------------------------------------------|
Outro #2 #=pause
E---------------------------------------------------------|
B---------------------------------------------------------|
G---------------------------------------------------------|
D-------------------------------------------------2-2-2---|
A-------------------------------------------------2-2-2---|
E---#############################################-0-0-0---|




Ваше мнение



Капча