Song: Leave it Alone
Artist: NOFX
Album: Punk in Drublic
Transcribed by: wHeELz ([email protected])
I didn't tab out the intro because I can't seem to get it right.
Verses
------
This repeats 4x, 2 with palm muting and 2 without
E|----------------------------------------------|
B|----------------------------------------------|
G|--------------7----5----3----5----------------|
D|---3----7-----7----5----3----5----------------|
A|---3----7-----5----3----1----3----------------|
E|---1----5-------------------------------------|

Dadadadadadadadadadadadada part
-------------------------------
guitar 1 guitar 2
E|----------------------------| E---------------------|
B|----------------------------| B---------------------|
G|----------------------------| G---2---1---0---------|
D|---7---6---5---2------------| D---------------2-----|
A|---7---6---5---2------------| A---------------------|
E|---5---4---3---0------------| E---------------------|
The part inbetween the 2 dadadadada parts
------------------------------------------
E|---------------------------------------------------------|
B|---------------------------------------------------------|
G|-----------9---7---5---7---5-------7---7---5---7---5-----|
D|---7---9---9---7---5---7---5---9---7---7---5---7---5-----|
A|---7---9---7---5---3---5---3---9---9---5---3---5---3-----|
E|---5---7-----------------------7-------------------------|

*********
* BONUS *
*********
Intro to the Malachav Crunch (i know it's spelled wrong but I suck at
spelling and can't find my Ribbed Tape anywhere )
On Low E:
E|--9-9-9-9-12-9-9-9-11-9-9-9-9-12-9-11-9--|
If anyone knows the rest of this song, please transcribe it.


Ваше мнение



Капча