this is a great song fom punk in drublic(i think tat tis is a 100% correct its sounds spot on)
intro
e----------------------------------------------------------------
b----------------------------------------------------------------
g----------------------------------------------------------------
d----4-4-4-3-----3-3-3-3-3-3----3-3-3-4-----4-4-4-4-4-4----------
a----4-4-4-4-----4-4-4-4-4-4----1-1-1-2-----2-2-2-2-2-2----------
e----------------------------------------------------------------
play the next bit 4x 2 with palm muteing (palm muteing=*) and then 2 without
e-------------------------------------------------------------------------
b-------------------------------------------------------------------------
g----------------------------------------7-7777777--5-5555555--3-3333333--
d---3333333333333333--7-777777777777777--7-7777777--5-5555555--3-3333333--
a---3333333333333333--7-777777777777777--5-5555555--3-3333333--1-1111111--
e---1111111111111111--5-555555555555555----*******----*******----*******
**************** ***************
----------------------------------------------------------------------------
----------------------------------------------------------------------------
--------5-5555555-----------------------------------------------------------
--------5-5555555-----------------------------------------------------------
--------3-3333333-----------------------------------------------------------
----------*******-----------------------------------------------------------




Ваше мнение



Капча