Last Caress
NOFX
45 or 46 Songs That Weren't Good Enough To Go On Our Other Records
Chris
You should be able to work out the order from what I've given you.
Intro x1
e|------------------------------------------|
B|------------------------------------------|
G|----------10-12---------10-12-10----12----|
D|--10------10-12-10------10-12-10----12----|
A|--10-------8-10-10-------8-10--8----10----|
E|---8-------------8------------------------|
e|------------------------------------------|
B|------------------------------------------|
G|----------10-12---------------------------|
D|--10------10-12---------------------------|
A|--10-x8----8-10---------------------------|
E|---8--------------------------------------|
e|--xx1--xx1--xx3--xx3--xx8--xx8--xx5--xx5--|
B|--xx1--xx1--xx3--xx3--xx8--xx8--xx5--xx5--|
G|------------------------------------------|
D|------------------------------------------|
A|------------------------------------------|
E|------------------------------------------|
e|------------------------------------------|
B|------------------------------------------|
G|------------------------------------------|
D|------------------------------------------|
A|----5---




Ваше мнение



Капча