song:kill rock stars
band: NOFX
Album: so long and thanks for all the shoes
tabbed by: Carlos Pino
verse
G|-------------------------------------------------------------------------
D|-------------------------------------------------------------------------
A|-12-12-12-12-12-12-12-12--8--8--8--8--8--8--8--8-10-10-10-10-10-10-10-10-
E|-------------------------------------------------------------------------
G:---------------------------------------------------------------------------------------------|
D:---------------------------------------------------------------------------------------------|
A:------------------------------------------------------5-5-5-5-5-5-5-5-7-7-7--7-7-7-|
E:--8--8--8--8--8--8--8--8-5-5-5-5-5-5-5-5-----------------------------------------|
G|---------------------------------------------------------------------------|
D|----------------------------------------------------------------------------|
A|-5-5-5-5-5-5-5-5-5-5-5-5-5-5-5-5-5--8--8--8--8--8--8--8--8--8--8--8--8--8-|
E|----------------------------------------------------------------------------|
then... (play the line below first then the line above)
G|-------------------------------|
D|-------------------------------|
A|-3-3-3--5-5-5--7-7-7---8--8--8-|
E|-------------------------------|




Ваше мнение



Капча