Kids in the K Hole by NOFX
Tabbed Out by xhurleysk8rx
The whole song is basically power chords and *octavez*(i think that’s how you spell it.)
This is the intro after the Bass Riff
You figure out how many times to strum
Intro: A
E-------------------5--------------------
B—0---4---5---0-----7---4--5--0----------
G-2---6---7---2-----7---6--7--2----------
D-2---6---7---2-----6---6--7--2----------
A-------------------5--------------------
E-------------------5--------------------
Chorus:
(Everybody needs some times away.)
E--1--------1----------------------------
B--3--3--2--3-----8--7--5--3-------------
G--3--5--4--3-----x--x--x--x--3----------
D-----5--4--------10-9--7--5--5----------
A-----------------------------6----------
E----------------------------------------
Verse 1:
(Mrs. Kitty Ketamine your perseverance may)
E--------1-------------------------------
B--3--1--3--3----------------------------
G--5--3--3--5----------------------------
D--5--3-----5----------------------------
A----------------------------------------
E----------------------------------------
Verse 2:
(Infatuation w/ your dark side I obey)
E--------1-------------4-----------------
B--3--1--3-------------------------------
G--5--3--3-------------------------------
D--5--3----------------------------------
A----------------------------------------
E----------------------------------------
(Somewhere between the Eden and north utopia)
E---------------------------------------
B--0--------3--2--0----3-2----5--0------
G--2--3--5--5--4--2--3-5-4-3--7--2--3---
D--2--5--7--5--4--2--5-5-4-5--7--2--5---
A-----6--8-----------6-----6--------6---
E---------------------------------------
Verse 1:
(Dropping crumbs and flying thumbs won’t help me get back home)
E--------1-------------------------------
B--3--1--3--3----------------------------
G--5--3--3--5----------------------------
D--5--3-----5----------------------------
A----------------------------------------
E----------------------------------------
Verse 2:
(cause’ I promised my heart to her she cooked it medium well)
E--------1-------------4-----------------
B--3--1--3-------------------------------
G--5--3--3-------------------------------
D--5--3----------------------------------
A----------------------------------------
E----------------------------------------

(It may sound good to you it may sound oh soo wrong)
E-----------------------------1----------
B--0-----3--2-------8--7--5---3----------
G--2--3--5--4--3----x--x--x---3----------
D--2--5--5—-4--5----10-9--7--------------
A-----6--------6-------------------------
E---------------------------------
Lyrics
Everybody needs some time away
Just stuck in the k-hole again
An 18 hour holiday
Just stuck in the k-hole again, just once again
Mrs. Kitty Ketamine your perseverance may
Outlast my ambition to go home
Infatuation with your dark side I obey
Forbidden pleasures, I have grown to loathe/love
Somewhere between the eden and north utopia
Somewhere beneath the astral plain
I've taken residence on sybaritic soil
You won't be seeing me again
You won't be seeing me again
Dropping Crumbs and flying thumbs
Won't help me get back home
The home is where the heart is, I've been told
'Cause I promised my heart to her
She cooked it medium well
Then proceded to swallow it whole
It may sound good to you
It may sound oh so wrong (soo fuckin’ wrong)
Just stuck in the k-hole again
Winter's broken, summer's gone
Just stuck in the k-hole again
Just once again




Ваше мнение



Капча